ISO-10303-21;
HEADER;
/* Generated by software containing ST-Developer
 * from STEP Tools, Inc. (www.steptools.com) 
 */
/* OPTION: using custom schema-name function */

FILE_DESCRIPTION(
/* description */ (''),
/* implementation_level */ '2;1');

FILE_NAME(
/* name */ 'Steckerstift_AWG18-16.stp',
/* time_stamp */ '2020-03-06T14:28:19+01:00',
/* author */ ('ESCHA GmbH & Co. KG'),
/* organization */ ('ESCHA GmbH & Co. KG'),
/* preprocessor_version */ 'ST-DEVELOPER v16',
/* originating_system */ 'SIEMENS PLM Software NX 10.0',
/* authorisation */ '');

FILE_SCHEMA (('AUTOMOTIVE_DESIGN { 1 0 10303 214 3 1 1 1 }'));
ENDSEC;

DATA;
#10=SHAPE_REPRESENTATION_RELATIONSHIP('None',
'relationship between 5026476__Steckerstift_part_283560-None and 50264
76__Steckerstift_part_283560-None',#22,#11);
#11=ADVANCED_BREP_SHAPE_REPRESENTATION(
'5026476__Steckerstift_part_283560-None',(#32),#543);
#12=SHAPE_DEFINITION_REPRESENTATION(#13,#22);
#13=PRODUCT_DEFINITION_SHAPE('','',#14);
#14=PRODUCT_DEFINITION(' ','',#16,#15);
#15=PRODUCT_DEFINITION_CONTEXT('part definition',#21,'design');
#16=PRODUCT_DEFINITION_FORMATION_WITH_SPECIFIED_SOURCE(' ',' ',#18,
 .NOT_KNOWN.);
#17=PRODUCT_RELATED_PRODUCT_CATEGORY('part','',(#18));
#18=PRODUCT('5026476__Steckerstift_part_283560',
'5026476__Steckerstift_part_283560',' ',(#19));
#19=PRODUCT_CONTEXT(' ',#21,'mechanical');
#20=APPLICATION_PROTOCOL_DEFINITION('international standard',
'automotive_design',2010,#21);
#21=APPLICATION_CONTEXT(
'core data for automotive mechanical design processes');
#22=SHAPE_REPRESENTATION('5026476__Steckerstift_part_283560-None',(#248),
#543);
#23=PRESENTATION_LAYER_ASSIGNMENT('1','Layer 1',(#32));
#24=STYLED_ITEM('',(#25),#32);
#25=PRESENTATION_STYLE_ASSIGNMENT((#26));
#26=SURFACE_STYLE_USAGE(.BOTH.,#27);
#27=SURFACE_SIDE_STYLE('',(#28));
#28=SURFACE_STYLE_FILL_AREA(#29);
#29=FILL_AREA_STYLE('',(#30));
#30=FILL_AREA_STYLE_COLOUR('',#31);
#31=COLOUR_RGB('Medium Gray',0.490196078431373,0.490196078431373,0.490196078431373);
#32=MANIFOLD_SOLID_BREP('',#33);
#33=CLOSED_SHELL('',(#48,#49,#50,#51,#52,#53,#54,#55,#56,#57,#58,#59,#60,
#61,#62,#63,#64,#65,#66));
#34=SPHERICAL_SURFACE('',#283,0.5);
#35=FACE_OUTER_BOUND('',#107,.T.);
#36=PLANE('',#256);
#37=PLANE('',#260);
#38=PLANE('',#264);
#39=CYLINDRICAL_SURFACE('',#252,0.725000000000001);
#40=CYLINDRICAL_SURFACE('',#258,0.999999999999999);
#41=CYLINDRICAL_SURFACE('',#262,0.649999999999999);
#42=CYLINDRICAL_SURFACE('',#266,0.85);
#43=CYLINDRICAL_SURFACE('',#270,0.725);
#44=CYLINDRICAL_SURFACE('',#274,0.600000000000001);
#45=CYLINDRICAL_SURFACE('',#278,0.55);
#46=CYLINDRICAL_SURFACE('',#282,0.5);
#47=CYLINDRICAL_SURFACE('',#284,0.300000000000001);
#48=ADVANCED_FACE('',(#190,#191),#67,.F.);
#49=ADVANCED_FACE('',(#192,#193),#39,.F.);
#50=ADVANCED_FACE('',(#194,#195),#68,.F.);
#51=ADVANCED_FACE('',(#196,#197),#36,.F.);
#52=ADVANCED_FACE('',(#198,#199,#200),#40,.T.);
#53=ADVANCED_FACE('',(#201,#202),#37,.F.);
#54=ADVANCED_FACE('',(#203,#204),#41,.T.);
#55=ADVANCED_FACE('',(#205,#206),#38,.F.);
#56=ADVANCED_FACE('',(#207,#208),#42,.T.);
#57=ADVANCED_FACE('',(#209,#210),#69,.T.);
#58=ADVANCED_FACE('',(#211,#212),#43,.T.);
#59=ADVANCED_FACE('',(#213,#214),#70,.T.);
#60=ADVANCED_FACE('',(#215,#216),#44,.T.);
#61=ADVANCED_FACE('',(#217,#218),#71,.T.);
#62=ADVANCED_FACE('',(#219,#220),#45,.T.);
#63=ADVANCED_FACE('',(#221,#222),#72,.T.);
#64=ADVANCED_FACE('',(#223,#224),#46,.T.);
#65=ADVANCED_FACE('',(#35),#34,.T.);
#66=ADVANCED_FACE('',(#225,#226),#47,.F.);
#67=CONICAL_SURFACE('',#250,0.725000000000001,60.0000000000001);
#68=CONICAL_SURFACE('',#254,0.898205080756889,30.0000000000001);
#69=CONICAL_SURFACE('',#268,0.725,15.);
#70=CONICAL_SURFACE('',#272,0.600000000000001,14.9999999999999);
#71=CONICAL_SURFACE('',#276,0.55,30.0000000000011);
#72=CONICAL_SURFACE('',#280,0.5,30.);
#73=EDGE_LOOP('',(#113,#114));
#74=EDGE_LOOP('',(#115,#116));
#75=EDGE_LOOP('',(#117));
#76=EDGE_LOOP('',(#118));
#77=EDGE_LOOP('',(#119));
#78=EDGE_LOOP('',(#120));
#79=EDGE_LOOP('',(#121));
#80=EDGE_LOOP('',(#122));
#81=EDGE_LOOP('',(#123));
#82=EDGE_LOOP('',(#124));
#83=EDGE_LOOP('',(#125));
#84=EDGE_LOOP('',(#126));
#85=EDGE_LOOP('',(#127));
#86=EDGE_LOOP('',(#128));
#87=EDGE_LOOP('',(#129));
#88=EDGE_LOOP('',(#130));
#89=EDGE_LOOP('',(#131));
#90=EDGE_LOOP('',(#132));
#91=EDGE_LOOP('',(#133));
#92=EDGE_LOOP('',(#134));
#93=EDGE_LOOP('',(#135));
#94=EDGE_LOOP('',(#136));
#95=EDGE_LOOP('',(#137));
#96=EDGE_LOOP('',(#138));
#97=EDGE_LOOP('',(#139));
#98=EDGE_LOOP('',(#140));
#99=EDGE_LOOP('',(#141));
#100=EDGE_LOOP('',(#142));
#101=EDGE_LOOP('',(#143));
#102=EDGE_LOOP('',(#144));
#103=EDGE_LOOP('',(#145));
#104=EDGE_LOOP('',(#146));
#105=EDGE_LOOP('',(#147));
#106=EDGE_LOOP('',(#148));
#107=EDGE_LOOP('',(#149));
#108=EDGE_LOOP('',(#150));
#109=EDGE_LOOP('',(#151,#152));
#110=B_SPLINE_CURVE_WITH_KNOTS('',3,(#364,#365,#366,#367,#368,#369,#370,
#371,#372,#373,#374,#375,#376,#377,#378,#379,#380,#381,#382,#383,#384,#385),
 .UNSPECIFIED.,.F.,.F.,(4,3,3,3,3,3,3,4),(0.,0.183626110901684,0.318601092166602,
0.455343717191067,0.572614001381518,0.682332725864914,0.826809534614015,
1.),.UNSPECIFIED.);
#111=B_SPLINE_CURVE_WITH_KNOTS('',3,(#387,#388,#389,#390,#391,#392,#393,
#394,#395,#396,#397,#398,#399,#400,#401,#402,#403,#404,#405,#406,#407,#408,
#409,#410,#411,#412,#413,#414,#415,#416,#417,#418,#419,#420,#421,#422,#423,
#424,#425,#426,#427,#428,#429,#430,#431,#432),.UNSPECIFIED.,.F.,.F.,(4,
3,3,3,3,3,3,3,3,3,3,3,3,3,3,4),(0.,0.0725478001230327,0.145409899037217,
0.213776461814117,0.28023659355068,0.35148680121141,0.427216273668774,0.500401195048631,
0.568446286618922,0.6361422671365,0.708224295502177,0.784029823763666,0.856415014758377,
0.923072033706808,0.990875379351664,1.),.UNSPECIFIED.);
#112=B_SPLINE_CURVE_WITH_KNOTS('',3,(#442,#443,#444,#445,#446,#447,#448,
#449,#450,#451,#452,#453,#454,#455,#456,#457,#458,#459,#460,#461,#462,#463,
#464,#465,#466,#467,#468,#469,#470,#471,#472,#473,#474,#475,#476,#477,#478,
#479,#480,#481,#482,#483,#484,#485,#486,#487,#488,#489,#490,#491,#492,#493,
#494,#495,#496,#497,#498,#499),.UNSPECIFIED.,.T.,.F.,(1,3,3,3,3,3,3,3,3,
3,3,3,3,3,3,3,3,3,3,3,3,1),(-0.0486349087388906,0.,0.052100134230014,0.104109675571523,
0.157486552801276,0.212108437862947,0.26517880397386,0.316277189380613,
0.368073566743311,0.422083305203486,0.47648354806844,0.52889199592069,0.580075258378173,
0.632454850982463,0.68678723666015,0.740878153796925,0.792661452245419,
0.84376860606654,0.896770497667574,0.951365091261109,1.,1.05210013423001),
 .UNSPECIFIED.);
#113=ORIENTED_EDGE('',*,*,#153,.T.);
#114=ORIENTED_EDGE('',*,*,#154,.T.);
#115=ORIENTED_EDGE('',*,*,#153,.F.);
#116=ORIENTED_EDGE('',*,*,#155,.T.);
#117=ORIENTED_EDGE('',*,*,#156,.T.);
#118=ORIENTED_EDGE('',*,*,#156,.F.);
#119=ORIENTED_EDGE('',*,*,#157,.T.);
#120=ORIENTED_EDGE('',*,*,#157,.F.);
#121=ORIENTED_EDGE('',*,*,#158,.T.);
#122=ORIENTED_EDGE('',*,*,#159,.T.);
#123=ORIENTED_EDGE('',*,*,#158,.F.);
#124=ORIENTED_EDGE('',*,*,#160,.T.);
#125=ORIENTED_EDGE('',*,*,#160,.F.);
#126=ORIENTED_EDGE('',*,*,#161,.T.);
#127=ORIENTED_EDGE('',*,*,#161,.F.);
#128=ORIENTED_EDGE('',*,*,#162,.T.);
#129=ORIENTED_EDGE('',*,*,#162,.F.);
#130=ORIENTED_EDGE('',*,*,#163,.T.);
#131=ORIENTED_EDGE('',*,*,#163,.F.);
#132=ORIENTED_EDGE('',*,*,#164,.T.);
#133=ORIENTED_EDGE('',*,*,#164,.F.);
#134=ORIENTED_EDGE('',*,*,#165,.T.);
#135=ORIENTED_EDGE('',*,*,#165,.F.);
#136=ORIENTED_EDGE('',*,*,#166,.T.);
#137=ORIENTED_EDGE('',*,*,#166,.F.);
#138=ORIENTED_EDGE('',*,*,#167,.T.);
#139=ORIENTED_EDGE('',*,*,#167,.F.);
#140=ORIENTED_EDGE('',*,*,#168,.T.);
#141=ORIENTED_EDGE('',*,*,#168,.F.);
#142=ORIENTED_EDGE('',*,*,#169,.T.);
#143=ORIENTED_EDGE('',*,*,#169,.F.);
#144=ORIENTED_EDGE('',*,*,#170,.T.);
#145=ORIENTED_EDGE('',*,*,#170,.F.);
#146=ORIENTED_EDGE('',*,*,#171,.T.);
#147=ORIENTED_EDGE('',*,*,#171,.F.);
#148=ORIENTED_EDGE('',*,*,#172,.T.);
#149=ORIENTED_EDGE('',*,*,#172,.F.);
#150=ORIENTED_EDGE('',*,*,#159,.F.);
#151=ORIENTED_EDGE('',*,*,#155,.F.);
#152=ORIENTED_EDGE('',*,*,#154,.F.);
#153=EDGE_CURVE('',#229,#230,#173,.T.);
#154=EDGE_CURVE('',#230,#229,#110,.T.);
#155=EDGE_CURVE('',#229,#230,#111,.T.);
#156=EDGE_CURVE('',#231,#231,#174,.T.);
#157=EDGE_CURVE('',#232,#232,#175,.T.);
#158=EDGE_CURVE('',#233,#233,#176,.T.);
#159=EDGE_CURVE('',#234,#234,#112,.T.);
#160=EDGE_CURVE('',#235,#235,#177,.T.);
#161=EDGE_CURVE('',#236,#236,#178,.T.);
#162=EDGE_CURVE('',#237,#237,#179,.T.);
#163=EDGE_CURVE('',#238,#238,#180,.T.);
#164=EDGE_CURVE('',#239,#239,#181,.T.);
#165=EDGE_CURVE('',#240,#240,#182,.T.);
#166=EDGE_CURVE('',#241,#241,#183,.T.);
#167=EDGE_CURVE('',#242,#242,#184,.T.);
#168=EDGE_CURVE('',#243,#243,#185,.T.);
#169=EDGE_CURVE('',#244,#244,#186,.T.);
#170=EDGE_CURVE('',#245,#245,#187,.T.);
#171=EDGE_CURVE('',#246,#246,#188,.T.);
#172=EDGE_CURVE('',#247,#247,#189,.T.);
#173=CIRCLE('',#249,0.725000000000001);
#174=CIRCLE('',#251,0.725000000000001);
#175=CIRCLE('',#253,0.898205080756889);
#176=CIRCLE('',#255,0.999999999999999);
#177=CIRCLE('',#257,0.999999999999999);
#178=CIRCLE('',#259,0.649999999999999);
#179=CIRCLE('',#261,0.649999999999999);
#180=CIRCLE('',#263,0.85);
#181=CIRCLE('',#265,0.85);
#182=CIRCLE('',#267,0.725);
#183=CIRCLE('',#269,0.725);
#184=CIRCLE('',#271,0.600000000000001);
#185=CIRCLE('',#273,0.600000000000001);
#186=CIRCLE('',#275,0.55);
#187=CIRCLE('',#277,0.550000000000005);
#188=CIRCLE('',#279,0.5);
#189=CIRCLE('',#281,0.5);
#190=FACE_BOUND('',#227,.T.);
#191=FACE_BOUND('',#73,.T.);
#192=FACE_BOUND('',#74,.T.);
#193=FACE_BOUND('',#75,.T.);
#194=FACE_BOUND('',#76,.T.);
#195=FACE_BOUND('',#77,.T.);
#196=FACE_BOUND('',#78,.T.);
#197=FACE_BOUND('',#79,.T.);
#198=FACE_BOUND('',#80,.T.);
#199=FACE_BOUND('',#81,.T.);
#200=FACE_BOUND('',#82,.T.);
#201=FACE_BOUND('',#83,.T.);
#202=FACE_BOUND('',#84,.T.);
#203=FACE_BOUND('',#85,.T.);
#204=FACE_BOUND('',#86,.T.);
#205=FACE_BOUND('',#87,.T.);
#206=FACE_BOUND('',#88,.T.);
#207=FACE_BOUND('',#89,.T.);
#208=FACE_BOUND('',#90,.T.);
#209=FACE_BOUND('',#91,.T.);
#210=FACE_BOUND('',#92,.T.);
#211=FACE_BOUND('',#93,.T.);
#212=FACE_BOUND('',#94,.T.);
#213=FACE_BOUND('',#95,.T.);
#214=FACE_BOUND('',#96,.T.);
#215=FACE_BOUND('',#97,.T.);
#216=FACE_BOUND('',#98,.T.);
#217=FACE_BOUND('',#99,.T.);
#218=FACE_BOUND('',#100,.T.);
#219=FACE_BOUND('',#101,.T.);
#220=FACE_BOUND('',#102,.T.);
#221=FACE_BOUND('',#103,.T.);
#222=FACE_BOUND('',#104,.T.);
#223=FACE_BOUND('',#105,.T.);
#224=FACE_BOUND('',#106,.T.);
#225=FACE_BOUND('',#108,.T.);
#226=FACE_BOUND('',#109,.T.);
#227=VERTEX_LOOP('',#228);
#228=VERTEX_POINT('',#360);
#229=VERTEX_POINT('',#362);
#230=VERTEX_POINT('',#363);
#231=VERTEX_POINT('',#434);
#232=VERTEX_POINT('',#437);
#233=VERTEX_POINT('',#440);
#234=VERTEX_POINT('',#500);
#235=VERTEX_POINT('',#502);
#236=VERTEX_POINT('',#505);
#237=VERTEX_POINT('',#508);
#238=VERTEX_POINT('',#511);
#239=VERTEX_POINT('',#514);
#240=VERTEX_POINT('',#517);
#241=VERTEX_POINT('',#520);
#242=VERTEX_POINT('',#523);
#243=VERTEX_POINT('',#526);
#244=VERTEX_POINT('',#529);
#245=VERTEX_POINT('',#532);
#246=VERTEX_POINT('',#535);
#247=VERTEX_POINT('',#538);
#248=AXIS2_PLACEMENT_3D('',#359,#285,#286);
#249=AXIS2_PLACEMENT_3D('',#361,#287,#288);
#250=AXIS2_PLACEMENT_3D('',#386,#289,#290);
#251=AXIS2_PLACEMENT_3D('',#433,#291,#292);
#252=AXIS2_PLACEMENT_3D('',#435,#293,#294);
#253=AXIS2_PLACEMENT_3D('',#436,#295,#296);
#254=AXIS2_PLACEMENT_3D('',#438,#297,#298);
#255=AXIS2_PLACEMENT_3D('',#439,#299,#300);
#256=AXIS2_PLACEMENT_3D('',#441,#301,#302);
#257=AXIS2_PLACEMENT_3D('',#501,#303,#304);
#258=AXIS2_PLACEMENT_3D('',#503,#305,#306);
#259=AXIS2_PLACEMENT_3D('',#504,#307,#308);
#260=AXIS2_PLACEMENT_3D('',#506,#309,#310);
#261=AXIS2_PLACEMENT_3D('',#507,#311,#312);
#262=AXIS2_PLACEMENT_3D('',#509,#313,#314);
#263=AXIS2_PLACEMENT_3D('',#510,#315,#316);
#264=AXIS2_PLACEMENT_3D('',#512,#317,#318);
#265=AXIS2_PLACEMENT_3D('',#513,#319,#320);
#266=AXIS2_PLACEMENT_3D('',#515,#321,#322);
#267=AXIS2_PLACEMENT_3D('',#516,#323,#324);
#268=AXIS2_PLACEMENT_3D('',#518,#325,#326);
#269=AXIS2_PLACEMENT_3D('',#519,#327,#328);
#270=AXIS2_PLACEMENT_3D('',#521,#329,#330);
#271=AXIS2_PLACEMENT_3D('',#522,#331,#332);
#272=AXIS2_PLACEMENT_3D('',#524,#333,#334);
#273=AXIS2_PLACEMENT_3D('',#525,#335,#336);
#274=AXIS2_PLACEMENT_3D('',#527,#337,#338);
#275=AXIS2_PLACEMENT_3D('',#528,#339,#340);
#276=AXIS2_PLACEMENT_3D('',#530,#341,#342);
#277=AXIS2_PLACEMENT_3D('',#531,#343,#344);
#278=AXIS2_PLACEMENT_3D('',#533,#345,#346);
#279=AXIS2_PLACEMENT_3D('',#534,#347,#348);
#280=AXIS2_PLACEMENT_3D('',#536,#349,#350);
#281=AXIS2_PLACEMENT_3D('',#537,#351,#352);
#282=AXIS2_PLACEMENT_3D('',#539,#353,#354);
#283=AXIS2_PLACEMENT_3D('',#540,#355,#356);
#284=AXIS2_PLACEMENT_3D('',#541,#357,#358);
#285=DIRECTION('',(0.,0.,1.));
#286=DIRECTION('',(1.,0.,0.));
#287=DIRECTION('',(0.,0.,-1.));
#288=DIRECTION('',(-1.,0.,0.));
#289=DIRECTION('',(0.,0.,-1.));
#290=DIRECTION('',(-1.,0.,-2.70303484425304E-17));
#291=DIRECTION('',(0.,0.,-1.));
#292=DIRECTION('',(-1.,0.,0.));
#293=DIRECTION('',(0.,0.,-1.));
#294=DIRECTION('',(-1.,0.,0.));
#295=DIRECTION('',(0.,0.,-1.));
#296=DIRECTION('',(-1.,0.,0.));
#297=DIRECTION('',(0.,0.,-1.));
#298=DIRECTION('',(-1.,0.,-8.69988993344135E-17));
#299=DIRECTION('',(0.,0.,-1.));
#300=DIRECTION('',(-1.,0.,0.));
#301=DIRECTION('',(0.,0.,1.));
#302=DIRECTION('',(1.,0.,0.));
#303=DIRECTION('',(0.,0.,-1.));
#304=DIRECTION('',(-1.,0.,0.));
#305=DIRECTION('',(0.,0.,-1.));
#306=DIRECTION('',(-1.,0.,0.));
#307=DIRECTION('',(0.,0.,-1.));
#308=DIRECTION('',(-1.,0.,0.));
#309=DIRECTION('',(0.,0.,-1.));
#310=DIRECTION('',(-1.,0.,0.));
#311=DIRECTION('',(0.,0.,-1.));
#312=DIRECTION('',(-1.,0.,0.));
#313=DIRECTION('',(0.,0.,-1.));
#314=DIRECTION('',(-1.,0.,0.));
#315=DIRECTION('',(0.,0.,-1.));
#316=DIRECTION('',(-1.,0.,0.));
#317=DIRECTION('',(0.,0.,1.));
#318=DIRECTION('',(1.,0.,0.));
#319=DIRECTION('',(0.,0.,-1.));
#320=DIRECTION('',(-1.,0.,0.));
#321=DIRECTION('',(0.,0.,-1.));
#322=DIRECTION('',(-1.,0.,0.));
#323=DIRECTION('',(0.,0.,-1.));
#324=DIRECTION('',(-1.,0.,0.));
#325=DIRECTION('',(0.,0.,-1.));
#326=DIRECTION('',(-1.,0.,-6.45660627200552E-17));
#327=DIRECTION('',(0.,0.,-1.));
#328=DIRECTION('',(-1.,0.,0.));
#329=DIRECTION('',(0.,0.,-1.));
#330=DIRECTION('',(-1.,0.,0.));
#331=DIRECTION('',(0.,0.,-1.));
#332=DIRECTION('',(-1.,0.,0.));
#333=DIRECTION('',(0.,0.,-1.));
#334=DIRECTION('',(-1.,0.,1.16273008624263E-16));
#335=DIRECTION('',(0.,0.,-1.));
#336=DIRECTION('',(-1.,0.,0.));
#337=DIRECTION('',(0.,0.,-1.));
#338=DIRECTION('',(-1.,0.,0.));
#339=DIRECTION('',(0.,0.,-1.));
#340=DIRECTION('',(-1.,0.,0.));
#341=DIRECTION('',(0.,0.,-1.));
#342=DIRECTION('',(-1.,0.,-9.00530888353428E-17));
#343=DIRECTION('',(0.,0.,-1.));
#344=DIRECTION('',(-1.,0.,0.));
#345=DIRECTION('',(0.,0.,-1.));
#346=DIRECTION('',(-1.,0.,0.));
#347=DIRECTION('',(0.,0.,-1.));
#348=DIRECTION('',(-1.,0.,0.));
#349=DIRECTION('',(0.,0.,-1.));
#350=DIRECTION('',(-1.,0.,6.00405872756476E-18));
#351=DIRECTION('',(0.,0.,-1.));
#352=DIRECTION('',(-1.,0.,0.));
#353=DIRECTION('',(0.,0.,-1.));
#354=DIRECTION('',(-1.,0.,0.));
#355=DIRECTION('',(-6.12323399573677E-17,0.,-1.));
#356=DIRECTION('',(-1.,0.,0.));
#357=DIRECTION('',(0.,-1.,0.));
#358=DIRECTION('',(0.,0.,-0.999999999999997));
#359=CARTESIAN_POINT('',(0.,0.,0.));
#360=CARTESIAN_POINT('',(0.,0.,10.9185789451625));
#361=CARTESIAN_POINT('',(0.,0.,10.5));
#362=CARTESIAN_POINT('',(-0.223606797749984,-0.689655711206686,10.5));
#363=CARTESIAN_POINT('',(0.223606797749984,-0.689655711206686,10.5));
#364=CARTESIAN_POINT('',(0.223606797749984,-0.689655711206686,10.5));
#365=CARTESIAN_POINT('',(0.207742912504146,-0.662504581541231,10.5177363628985));
#366=CARTESIAN_POINT('',(0.188231533578941,-0.636739380292879,10.5353659851427));
#367=CARTESIAN_POINT('',(0.164141940469654,-0.614941030117302,10.5511123720147));
#368=CARTESIAN_POINT('',(0.146360566484651,-0.598850902942072,10.5627353327104));
#369=CARTESIAN_POINT('',(0.1256654788232,-0.584691153162295,10.5735062613889));
#370=CARTESIAN_POINT('',(0.102698798759798,-0.574076301215649,10.5818740086161));
#371=CARTESIAN_POINT('',(0.0795532114631046,-0.563378761053364,10.5903069394267));
#372=CARTESIAN_POINT('',(0.0533399771925199,-0.556059440385792,10.5964254361541));
#373=CARTESIAN_POINT('',(0.0267406168853407,-0.553217340306765,10.5988058557134));
#374=CARTESIAN_POINT('',(0.00383394642509896,-0.550769798366903,10.6008558105157));
#375=CARTESIAN_POINT('',(-0.0200164429178752,-0.551534935593459,10.6001984466672));
#376=CARTESIAN_POINT('',(-0.0425839574415688,-0.555426331141691,10.5969622982276));
#377=CARTESIAN_POINT('',(-0.0637672864766463,-0.559079046739472,10.5939246399542));
#378=CARTESIAN_POINT('',(-0.0843610170404507,-0.565563982778183,10.5885814609375));
#379=CARTESIAN_POINT('',(-0.103050861014286,-0.574239369520835,10.5817454880636));
#380=CARTESIAN_POINT('',(-0.127582801449524,-0.5856265202708,10.5727727176332));
#381=CARTESIAN_POINT('',(-0.149505960249608,-0.601069939829409,10.5610602821125));
#382=CARTESIAN_POINT('',(-0.168109318171376,-0.618605357306845,10.5484738560572));
#383=CARTESIAN_POINT('',(-0.190384924537943,-0.639602214908758,10.53340290631));
#384=CARTESIAN_POINT('',(-0.20861405560229,-0.66399554789962,10.5167623953057));
#385=CARTESIAN_POINT('',(-0.223606797749984,-0.689655711206686,10.5));
#386=CARTESIAN_POINT('',(0.,0.,10.5));
#387=CARTESIAN_POINT('',(-0.223606797749984,-0.689655711206686,10.5));
#388=CARTESIAN_POINT('',(-0.245501245414711,-0.682556883122963,10.4755212633459));
#389=CARTESIAN_POINT('',(-0.263615018306555,-0.675519133150322,10.4469961866948));
#390=CARTESIAN_POINT('',(-0.27649000031129,-0.67020763926403,10.4164185540533));
#391=CARTESIAN_POINT('',(-0.289396672874615,-0.664883071634557,10.3857656574419));
#392=CARTESIAN_POINT('',(-0.297350964437295,-0.6612205435889,10.3521157336263));
#393=CARTESIAN_POINT('',(-0.29942840786961,-0.660278447748124,10.3185102285418));
#394=CARTESIAN_POINT('',(-0.301380576964176,-0.659393162326691,10.2869312081879));
#395=CARTESIAN_POINT('',(-0.298197658459861,-0.660892290451911,10.254525921034));
#396=CARTESIAN_POINT('',(-0.290237178731716,-0.664369912083514,10.2240896576094));
#397=CARTESIAN_POINT('',(-0.282482378552119,-0.66775768038069,10.19443979364));
#398=CARTESIAN_POINT('',(-0.270049026692759,-0.673048270369952,10.1658806431314));
#399=CARTESIAN_POINT('',(-0.253949292627121,-0.679069036824819,10.14028225905));
#400=CARTESIAN_POINT('',(-0.2367018004412,-0.685519026741435,10.1128589533223));
#401=CARTESIAN_POINT('',(-0.214811463530595,-0.69293143980481,10.0881013385162));
#402=CARTESIAN_POINT('',(-0.189774756813159,-0.699721760185081,10.0676521106691));
#403=CARTESIAN_POINT('',(-0.163226984903196,-0.706921903506066,10.0459686902918));
#404=CARTESIAN_POINT('',(-0.132329713237102,-0.713587962297328,10.028531749243));
#405=CARTESIAN_POINT('',(-0.099568453507602,-0.71813029671927,10.0170050829677));
#406=CARTESIAN_POINT('',(-0.0679225615561195,-0.72251798588358,10.0058708458071));
#407=CARTESIAN_POINT('',(-0.033572743588079,-0.725012107178913,9.99997074097515));
#408=CARTESIAN_POINT('',(0.000260443082971299,-0.724999953220276,10.000000113051));
#409=CARTESIAN_POINT('',(0.0317872547120113,-0.724988627785039,10.0000274828614));
#410=CARTESIAN_POINT('',(0.0637271935895735,-0.722815863192134,10.0051816702876));
#411=CARTESIAN_POINT('',(0.0934591510314089,-0.718950893377629,10.0149291542643));
#412=CARTESIAN_POINT('',(0.123076965637948,-0.715100761422818,10.0246392170432));
#413=CARTESIAN_POINT('',(0.15128072585571,-0.70950594675052,10.0391139856323));
#414=CARTESIAN_POINT('',(0.176192434359581,-0.703264691332109,10.0571909678895));
#415=CARTESIAN_POINT('',(0.202698263203299,-0.696624052940543,10.076424710836));
#416=CARTESIAN_POINT('',(0.226191179824219,-0.689104278699699,10.1002296453554));
#417=CARTESIAN_POINT('',(0.245064633904884,-0.682325673860414,10.1269586026147));
#418=CARTESIAN_POINT('',(0.264866625403523,-0.675213574780591,10.1550025728468));
#419=CARTESIAN_POINT('',(0.280135926887053,-0.668767222280002,10.1871417554728));
#420=CARTESIAN_POINT('',(0.289338694546743,-0.664761701542732,10.2207338670176));
#421=CARTESIAN_POINT('',(0.298123672967277,-0.660938024303325,10.2528009566078));
#422=CARTESIAN_POINT('',(0.301586537244928,-0.659300300681538,10.2871712406858));
#423=CARTESIAN_POINT('',(0.299295718437311,-0.660338604751453,10.3205444134765));
#424=CARTESIAN_POINT('',(0.297179907390031,-0.661297587283925,10.3513680331528));
#425=CARTESIAN_POINT('',(0.290142287740279,-0.66452333871019,10.3821640129158));
#426=CARTESIAN_POINT('',(0.278881952689607,-0.669215851922258,10.4105660728435));
#427=CARTESIAN_POINT('',(0.267416649106079,-0.673993781557919,10.4394851270282));
#428=CARTESIAN_POINT('',(0.251325361101921,-0.680357088830039,10.4666814182915));
#429=CARTESIAN_POINT('',(0.231787083332932,-0.686949596404288,10.49045930799));
#430=CARTESIAN_POINT('',(0.2291269240233,-0.687847174000677,10.4936966954093));
#431=CARTESIAN_POINT('',(0.226399098132599,-0.688750364760964,10.4968781132654));
#432=CARTESIAN_POINT('',(0.223606797749984,-0.689655711206686,10.5));
#433=CARTESIAN_POINT('',(0.,0.,6.8));
#434=CARTESIAN_POINT('',(-0.725000000000001,0.,6.8));
#435=CARTESIAN_POINT('',(0.,0.,0.));
#436=CARTESIAN_POINT('',(0.,0.,6.5));
#437=CARTESIAN_POINT('',(-0.898205080756889,0.,6.5));
#438=CARTESIAN_POINT('',(0.,0.,6.5));
#439=CARTESIAN_POINT('',(0.,0.,6.5));
#440=CARTESIAN_POINT('',(-0.999999999999999,0.,6.5));
#441=CARTESIAN_POINT('',(0.999999999999999,0.,6.5));
#442=CARTESIAN_POINT('',(2.97433096542625E-17,-0.999999999999999,10.));
#443=CARTESIAN_POINT('',(-0.0327631200396714,-0.999999999999999,10.));
#444=CARTESIAN_POINT('',(-0.0659756138121704,-0.998303410569114,10.0055316456061));
#445=CARTESIAN_POINT('',(-0.0968536398892106,-0.995298634802746,10.0160644924631));
#446=CARTESIAN_POINT('',(-0.127701147923482,-0.992296828781759,10.0265869292677));
#447=CARTESIAN_POINT('',(-0.15706215145161,-0.987934070163804,10.0423568389495));
#448=CARTESIAN_POINT('',(-0.182742163058501,-0.983160872818227,10.0620813125442));
#449=CARTESIAN_POINT('',(-0.209089344961097,-0.978263667137559,10.0823182307235));
#450=CARTESIAN_POINT('',(-0.232288193315668,-0.972830309701688,10.1072631471458));
#451=CARTESIAN_POINT('',(-0.250570041008538,-0.968098473580543,10.1350313528304));
#452=CARTESIAN_POINT('',(-0.269255164951007,-0.963262258670299,10.1634120927639));
#453=CARTESIAN_POINT('',(-0.283316877680604,-0.959063923078281,10.1955805792064));
#454=CARTESIAN_POINT('',(-0.291437291215466,-0.956589935807914,10.2288360674991));
#455=CARTESIAN_POINT('',(-0.299327942340862,-0.954185948578036,10.2611506109637));
#456=CARTESIAN_POINT('',(-0.301811711592015,-0.953373370148125,10.2954203956283));
#457=CARTESIAN_POINT('',(-0.298633198906735,-0.954367964943673,10.3286044141826));
#458=CARTESIAN_POINT('',(-0.295568462796755,-0.955326957682268,10.3606005929012));
#459=CARTESIAN_POINT('',(-0.287181351300194,-0.957970932809077,10.3924515818596));
#460=CARTESIAN_POINT('',(-0.27422787927333,-0.961664738996522,10.4216514292117));
#461=CARTESIAN_POINT('',(-0.261092264155453,-0.965410485024899,10.4512618653576));
#462=CARTESIAN_POINT('',(-0.242937427280378,-0.970298990558339,10.4789423545182));
#463=CARTESIAN_POINT('',(-0.221158273493065,-0.975237928951476,10.5027042625738));
#464=CARTESIAN_POINT('',(-0.198471716630354,-0.980382642460162,10.5274561828519));
#465=CARTESIAN_POINT('',(-0.171217215402093,-0.985690517706908,10.5486371409547));
#466=CARTESIAN_POINT('',(-0.141500405971976,-0.989938197621328,10.5645328620602));
#467=CARTESIAN_POINT('',(-0.111597588016744,-0.994212465338786,10.5805280803761));
#468=CARTESIAN_POINT('',(-0.078318569742957,-0.997501269653103,10.5916028615095));
#469=CARTESIAN_POINT('',(-0.0445500394505872,-0.999007154121004,10.5966737163703));
#470=CARTESIAN_POINT('',(-0.0119959382276292,-1.00045888195676,10.6015622063636));
#471=CARTESIAN_POINT('',(0.0219278319997512,-1.00028470432001,10.6010014102522));
#472=CARTESIAN_POINT('',(0.0542886717328506,-0.998525282665131,10.5950470134089));
#473=CARTESIAN_POINT('',(0.0859291994982923,-0.996805023543872,10.5892251540195));
#474=CARTESIAN_POINT('',(0.116926991298467,-0.993543053125808,10.5781173534772));
#475=CARTESIAN_POINT('',(0.144907823531357,-0.989445159005492,10.562681789775));
#476=CARTESIAN_POINT('',(0.173543717590134,-0.98525132871064,10.5468848626775));
#477=CARTESIAN_POINT('',(0.199793019315307,-0.980096707561889,10.5261525478044));
#478=CARTESIAN_POINT('',(0.2217449358488,-0.975104703826932,10.5020623255964));
#479=CARTESIAN_POINT('',(0.24448992720947,-0.969932349893699,10.4771017762447));
#480=CARTESIAN_POINT('',(0.263250922218908,-0.964825005472226,10.4478231245879));
#481=CARTESIAN_POINT('',(0.276439801795038,-0.961031235696071,10.4165377019832));
#482=CARTESIAN_POINT('',(0.289560151841765,-0.957257178379639,10.3854148386979));
#483=CARTESIAN_POINT('',(0.297513297856387,-0.954719925201648,10.3513855213493));
#484=CARTESIAN_POINT('',(0.299491294595305,-0.95409903283759,10.3174632317063));
#485=CARTESIAN_POINT('',(0.30138696607425,-0.95350398233883,10.2849528055204));
#486=CARTESIAN_POINT('',(0.297851775036095,-0.954654609601141,10.2516428816363));
#487=CARTESIAN_POINT('',(0.289230937071817,-0.957259350980995,10.2203415726959));
#488=CARTESIAN_POINT('',(0.280713550235348,-0.95983283514032,10.189415883356));
#489=CARTESIAN_POINT('',(0.267037208116099,-0.963859859138377,10.1596223258644));
#490=CARTESIAN_POINT('',(0.249320167436016,-0.968421114035456,10.133148406931));
#491=CARTESIAN_POINT('',(0.230954606234944,-0.973149330642204,10.1057054277572));
#492=CARTESIAN_POINT('',(0.207760415428118,-0.978544721386699,10.0810825366838));
#493=CARTESIAN_POINT('',(0.181480366724457,-0.983394568061851,10.0611174420483));
#494=CARTESIAN_POINT('',(0.154444745479365,-0.988383851730412,10.0405783348809));
#495=CARTESIAN_POINT('',(0.123352654238267,-0.992902210275888,10.0244043277769));
#496=CARTESIAN_POINT('',(0.0907665276928351,-0.995872199356214,10.0140604304218));
#497=CARTESIAN_POINT('',(0.0616652373062792,-0.998524570896936,10.0048227335068));
#498=CARTESIAN_POINT('',(0.0306472710244491,-0.999999999999999,10.));
#499=CARTESIAN_POINT('',(2.97433096542625E-17,-0.999999999999999,10.));
#500=CARTESIAN_POINT('',(2.97433096542625E-17,-0.999999999999999,10.));
#501=CARTESIAN_POINT('',(0.,0.,11.2));
#502=CARTESIAN_POINT('',(-0.999999999999999,0.,11.2));
#503=CARTESIAN_POINT('',(0.,0.,0.));
#504=CARTESIAN_POINT('',(0.,0.,11.2));
#505=CARTESIAN_POINT('',(-0.649999999999999,0.,11.2));
#506=CARTESIAN_POINT('',(0.649999999999999,4.44089209850063E-16,11.2));
#507=CARTESIAN_POINT('',(0.,0.,12.2));
#508=CARTESIAN_POINT('',(-0.649999999999999,0.,12.2));
#509=CARTESIAN_POINT('',(0.,0.,0.));
#510=CARTESIAN_POINT('',(0.,0.,12.2));
#511=CARTESIAN_POINT('',(-0.85,0.,12.2));
#512=CARTESIAN_POINT('',(0.85,-1.11022302462516E-16,12.2));
#513=CARTESIAN_POINT('',(0.,0.,12.5));
#514=CARTESIAN_POINT('',(-0.85,0.,12.5));
#515=CARTESIAN_POINT('',(0.,0.,0.));
#516=CARTESIAN_POINT('',(0.,0.,12.9665063509461));
#517=CARTESIAN_POINT('',(-0.725,0.,12.9665063509461));
#518=CARTESIAN_POINT('',(0.,0.,12.9665063509461));
#519=CARTESIAN_POINT('',(0.,0.,14.1));
#520=CARTESIAN_POINT('',(-0.725,0.,14.1));
#521=CARTESIAN_POINT('',(0.,0.,0.));
#522=CARTESIAN_POINT('',(0.,0.,14.5665063509461));
#523=CARTESIAN_POINT('',(-0.600000000000001,0.,14.5665063509461));
#524=CARTESIAN_POINT('',(0.,0.,14.5665063509461));
#525=CARTESIAN_POINT('',(0.,0.,16.5133974596216));
#526=CARTESIAN_POINT('',(-0.600000000000001,0.,16.5133974596216));
#527=CARTESIAN_POINT('',(0.,0.,0.));
#528=CARTESIAN_POINT('',(0.,0.,16.6));
#529=CARTESIAN_POINT('',(-0.55,0.,16.6));
#530=CARTESIAN_POINT('',(0.,0.,16.6));
#531=CARTESIAN_POINT('',(0.,0.,18.0133974596216));
#532=CARTESIAN_POINT('',(-0.550000000000005,0.,18.0133974596216));
#533=CARTESIAN_POINT('',(0.,0.,0.));
#534=CARTESIAN_POINT('',(0.,0.,18.1));
#535=CARTESIAN_POINT('',(-0.5,0.,18.1));
#536=CARTESIAN_POINT('',(0.,0.,18.1));
#537=CARTESIAN_POINT('',(0.,0.,25.6));
#538=CARTESIAN_POINT('',(-0.5,0.,25.6));
#539=CARTESIAN_POINT('',(0.,0.,0.));
#540=CARTESIAN_POINT('',(0.,0.,25.6));
#541=CARTESIAN_POINT('',(0.,0.,10.3));
#542=MECHANICAL_DESIGN_GEOMETRIC_PRESENTATION_REPRESENTATION('',(#24),#543);
#543=(
GEOMETRIC_REPRESENTATION_CONTEXT(3)
GLOBAL_UNCERTAINTY_ASSIGNED_CONTEXT((#544))
GLOBAL_UNIT_ASSIGNED_CONTEXT((#550,#546,#545))
REPRESENTATION_CONTEXT('Steckerstift_AWG18-16',
'TOP_LEVEL_ASSEMBLY_PART')
);
#544=UNCERTAINTY_MEASURE_WITH_UNIT(LENGTH_MEASURE(0.0508),#550,
'DISTANCE_ACCURACY_VALUE','Maximum Tolerance applied to model');
#545=(
NAMED_UNIT(*)
SI_UNIT($,.STERADIAN.)
SOLID_ANGLE_UNIT()
);
#546=(
CONVERSION_BASED_UNIT('DEGREE',#548)
NAMED_UNIT(#547)
PLANE_ANGLE_UNIT()
);
#547=DIMENSIONAL_EXPONENTS(0.,0.,0.,0.,0.,0.,0.);
#548=PLANE_ANGLE_MEASURE_WITH_UNIT(PLANE_ANGLE_MEASURE(0.0174532925),#549);
#549=(
NAMED_UNIT(*)
PLANE_ANGLE_UNIT()
SI_UNIT($,.RADIAN.)
);
#550=(
LENGTH_UNIT()
NAMED_UNIT(*)
SI_UNIT(.MILLI.,.METRE.)
);
ENDSEC;
END-ISO-10303-21;
