ISO-10303-21;
HEADER;
/* Generated by software containing ST-Developer
 * from STEP Tools, Inc. (www.steptools.com) 
 */
/* OPTION: using custom schema-name function */

FILE_DESCRIPTION(
/* description */ (''),
/* implementation_level */ '2;1');

FILE_NAME(
/* name */ 'Staubschutzkappe_M12.stp',
/* time_stamp */ '2016-09-21T14:00:04+02:00',
/* author */ (''),
/* organization */ (''),
/* preprocessor_version */ 'ST-DEVELOPER v16',
/* originating_system */ 'SIEMENS PLM Software NX 10.0',
/* authorisation */ '');

FILE_SCHEMA (('AUTOMOTIVE_DESIGN { 1 0 10303 214 3 1 1 1 }'));
ENDSEC;

DATA;
#10=SHAPE_REPRESENTATION_RELATIONSHIP('None',
'relationship between Staubschutzkappe_M12_stp-None and Staubschutzkap
pe_M12_stp-None',#22,#11);
#11=ADVANCED_BREP_SHAPE_REPRESENTATION('Staubschutzkappe_M12_stp-None',
(#32),#385);
#12=SHAPE_DEFINITION_REPRESENTATION(#13,#22);
#13=PRODUCT_DEFINITION_SHAPE('','',#14);
#14=PRODUCT_DEFINITION(' ','',#16,#15);
#15=PRODUCT_DEFINITION_CONTEXT('part definition',#21,'design');
#16=PRODUCT_DEFINITION_FORMATION_WITH_SPECIFIED_SOURCE(' ',' ',#18,
 .NOT_KNOWN.);
#17=PRODUCT_RELATED_PRODUCT_CATEGORY('part','',(#18));
#18=PRODUCT('01032100__Schutzkappe_part_34814',
'01032100__Schutzkappe_part_34814',' ',(#19));
#19=PRODUCT_CONTEXT(' ',#21,'mechanical');
#20=APPLICATION_PROTOCOL_DEFINITION('international standard',
'automotive_design',2010,#21);
#21=APPLICATION_CONTEXT(
'core data for automotive mechanical design processes');
#22=SHAPE_REPRESENTATION('Staubschutzkappe_M12_stp-None',(#222),#385);
#23=PRESENTATION_LAYER_ASSIGNMENT('1','Layer 1',(#32));
#24=STYLED_ITEM('',(#25),#32);
#25=PRESENTATION_STYLE_ASSIGNMENT((#26));
#26=SURFACE_STYLE_USAGE(.BOTH.,#27);
#27=SURFACE_SIDE_STYLE('',(#28));
#28=SURFACE_STYLE_FILL_AREA(#29);
#29=FILL_AREA_STYLE('',(#30));
#30=FILL_AREA_STYLE_COLOUR('',#31);
#31=COLOUR_RGB('Medium Gray',0.490196078431373,0.490196078431373,0.490196078431373);
#32=MANIFOLD_SOLID_BREP('',#33);
#33=CLOSED_SHELL('',(#50,#51,#52,#53,#54,#55,#56,#57,#58,#59,#60,#61,#62,
#63));
#34=CONICAL_SURFACE('',#238,7.5,45.);
#35=PLANE('',#234);
#36=PLANE('',#236);
#37=PLANE('',#242);
#38=PLANE('',#245);
#39=PLANE('',#247);
#40=PLANE('',#250);
#41=PLANE('',#253);
#42=FACE_OUTER_BOUND('',#84,.T.);
#43=FACE_OUTER_BOUND('',#85,.T.);
#44=FACE_OUTER_BOUND('',#96,.T.);
#45=FACE_OUTER_BOUND('',#97,.T.);
#46=FACE_OUTER_BOUND('',#98,.T.);
#47=FACE_OUTER_BOUND('',#99,.T.);
#48=FACE_OUTER_BOUND('',#100,.T.);
#49=FACE_OUTER_BOUND('',#101,.T.);
#50=ADVANCED_FACE('',(#70,#71),#64,.F.);
#51=ADVANCED_FACE('',(#42),#35,.F.);
#52=ADVANCED_FACE('',(#43),#36,.F.);
#53=ADVANCED_FACE('',(#72,#73),#34,.T.);
#54=ADVANCED_FACE('',(#74,#75),#65,.T.);
#55=ADVANCED_FACE('',(#76,#77),#37,.F.);
#56=ADVANCED_FACE('',(#78,#79),#66,.T.);
#57=ADVANCED_FACE('',(#80,#81),#38,.F.);
#58=ADVANCED_FACE('',(#44),#39,.T.);
#59=ADVANCED_FACE('',(#45),#67,.T.);
#60=ADVANCED_FACE('',(#46),#40,.F.);
#61=ADVANCED_FACE('',(#47),#68,.T.);
#62=ADVANCED_FACE('',(#48),#41,.T.);
#63=ADVANCED_FACE('',(#49),#69,.T.);
#64=CYLINDRICAL_SURFACE('',#230,6.5);
#65=CYLINDRICAL_SURFACE('',#240,8.);
#66=CYLINDRICAL_SURFACE('',#244,7.);
#67=CYLINDRICAL_SURFACE('',#248,2.12500000000001);
#68=CYLINDRICAL_SURFACE('',#251,2.125);
#69=CYLINDRICAL_SURFACE('',#254,2.12500000000001);
#70=FACE_BOUND('',#82,.T.);
#71=FACE_BOUND('',#83,.T.);
#72=FACE_BOUND('',#86,.T.);
#73=FACE_BOUND('',#87,.T.);
#74=FACE_BOUND('',#88,.T.);
#75=FACE_BOUND('',#89,.T.);
#76=FACE_BOUND('',#90,.T.);
#77=FACE_BOUND('',#91,.T.);
#78=FACE_BOUND('',#92,.T.);
#79=FACE_BOUND('',#93,.T.);
#80=FACE_BOUND('',#94,.T.);
#81=FACE_BOUND('',#95,.T.);
#82=EDGE_LOOP('',(#114,#115,#116,#117,#118,#119,#120,#121,#122,#123,#124,
#125));
#83=EDGE_LOOP('',(#126));
#84=EDGE_LOOP('',(#127,#128,#129,#130,#131,#132));
#85=EDGE_LOOP('',(#133));
#86=EDGE_LOOP('',(#134));
#87=EDGE_LOOP('',(#135));
#88=EDGE_LOOP('',(#136));
#89=EDGE_LOOP('',(#137));
#90=EDGE_LOOP('',(#138));
#91=EDGE_LOOP('',(#139));
#92=EDGE_LOOP('',(#140));
#93=EDGE_LOOP('',(#141));
#94=EDGE_LOOP('',(#142));
#95=EDGE_LOOP('',(#143));
#96=EDGE_LOOP('',(#144,#145));
#97=EDGE_LOOP('',(#146,#147,#148,#149));
#98=EDGE_LOOP('',(#150,#151));
#99=EDGE_LOOP('',(#152,#153,#154,#155));
#100=EDGE_LOOP('',(#156,#157));
#101=EDGE_LOOP('',(#158,#159,#160,#161));
#102=LINE('',#331,#108);
#103=LINE('',#335,#109);
#104=LINE('',#339,#110);
#105=LINE('',#343,#111);
#106=LINE('',#347,#112);
#107=LINE('',#351,#113);
#108=VECTOR('',#259,1.);
#109=VECTOR('',#262,1.);
#110=VECTOR('',#265,1.);
#111=VECTOR('',#268,1.);
#112=VECTOR('',#271,1.);
#113=VECTOR('',#274,1.);
#114=ORIENTED_EDGE('',*,*,#180,.F.);
#115=ORIENTED_EDGE('',*,*,#181,.T.);
#116=ORIENTED_EDGE('',*,*,#182,.T.);
#117=ORIENTED_EDGE('',*,*,#183,.T.);
#118=ORIENTED_EDGE('',*,*,#184,.F.);
#119=ORIENTED_EDGE('',*,*,#185,.T.);
#120=ORIENTED_EDGE('',*,*,#186,.T.);
#121=ORIENTED_EDGE('',*,*,#187,.T.);
#122=ORIENTED_EDGE('',*,*,#188,.F.);
#123=ORIENTED_EDGE('',*,*,#189,.F.);
#124=ORIENTED_EDGE('',*,*,#190,.F.);
#125=ORIENTED_EDGE('',*,*,#191,.F.);
#126=ORIENTED_EDGE('',*,*,#192,.T.);
#127=ORIENTED_EDGE('',*,*,#184,.T.);
#128=ORIENTED_EDGE('',*,*,#193,.T.);
#129=ORIENTED_EDGE('',*,*,#180,.T.);
#130=ORIENTED_EDGE('',*,*,#194,.F.);
#131=ORIENTED_EDGE('',*,*,#188,.T.);
#132=ORIENTED_EDGE('',*,*,#195,.T.);
#133=ORIENTED_EDGE('',*,*,#196,.F.);
#134=ORIENTED_EDGE('',*,*,#197,.F.);
#135=ORIENTED_EDGE('',*,*,#196,.T.);
#136=ORIENTED_EDGE('',*,*,#198,.F.);
#137=ORIENTED_EDGE('',*,*,#197,.T.);
#138=ORIENTED_EDGE('',*,*,#199,.F.);
#139=ORIENTED_EDGE('',*,*,#198,.T.);
#140=ORIENTED_EDGE('',*,*,#200,.F.);
#141=ORIENTED_EDGE('',*,*,#199,.T.);
#142=ORIENTED_EDGE('',*,*,#192,.F.);
#143=ORIENTED_EDGE('',*,*,#200,.T.);
#144=ORIENTED_EDGE('',*,*,#186,.F.);
#145=ORIENTED_EDGE('',*,*,#201,.T.);
#146=ORIENTED_EDGE('',*,*,#185,.F.);
#147=ORIENTED_EDGE('',*,*,#195,.F.);
#148=ORIENTED_EDGE('',*,*,#187,.F.);
#149=ORIENTED_EDGE('',*,*,#201,.F.);
#150=ORIENTED_EDGE('',*,*,#202,.F.);
#151=ORIENTED_EDGE('',*,*,#190,.T.);
#152=ORIENTED_EDGE('',*,*,#202,.T.);
#153=ORIENTED_EDGE('',*,*,#189,.T.);
#154=ORIENTED_EDGE('',*,*,#194,.T.);
#155=ORIENTED_EDGE('',*,*,#191,.T.);
#156=ORIENTED_EDGE('',*,*,#182,.F.);
#157=ORIENTED_EDGE('',*,*,#203,.T.);
#158=ORIENTED_EDGE('',*,*,#181,.F.);
#159=ORIENTED_EDGE('',*,*,#193,.F.);
#160=ORIENTED_EDGE('',*,*,#183,.F.);
#161=ORIENTED_EDGE('',*,*,#203,.F.);
#162=VERTEX_POINT('',#329);
#163=VERTEX_POINT('',#330);
#164=VERTEX_POINT('',#332);
#165=VERTEX_POINT('',#334);
#166=VERTEX_POINT('',#336);
#167=VERTEX_POINT('',#338);
#168=VERTEX_POINT('',#340);
#169=VERTEX_POINT('',#342);
#170=VERTEX_POINT('',#344);
#171=VERTEX_POINT('',#346);
#172=VERTEX_POINT('',#348);
#173=VERTEX_POINT('',#350);
#174=VERTEX_POINT('',#353);
#175=VERTEX_POINT('',#360);
#176=VERTEX_POINT('',#363);
#177=VERTEX_POINT('',#366);
#178=VERTEX_POINT('',#369);
#179=VERTEX_POINT('',#372);
#180=EDGE_CURVE('',#162,#163,#204,.T.);
#181=EDGE_CURVE('',#162,#164,#102,.T.);
#182=EDGE_CURVE('',#164,#165,#205,.T.);
#183=EDGE_CURVE('',#165,#166,#103,.T.);
#184=EDGE_CURVE('',#167,#166,#206,.T.);
#185=EDGE_CURVE('',#167,#168,#104,.T.);
#186=EDGE_CURVE('',#168,#169,#207,.T.);
#187=EDGE_CURVE('',#169,#170,#105,.T.);
#188=EDGE_CURVE('',#171,#170,#208,.T.);
#189=EDGE_CURVE('',#172,#171,#106,.T.);
#190=EDGE_CURVE('',#173,#172,#209,.T.);
#191=EDGE_CURVE('',#163,#173,#107,.T.);
#192=EDGE_CURVE('',#174,#174,#210,.T.);
#193=EDGE_CURVE('',#166,#162,#211,.T.);
#194=EDGE_CURVE('',#171,#163,#212,.T.);
#195=EDGE_CURVE('',#170,#167,#213,.T.);
#196=EDGE_CURVE('',#175,#175,#214,.T.);
#197=EDGE_CURVE('',#176,#176,#215,.T.);
#198=EDGE_CURVE('',#177,#177,#216,.T.);
#199=EDGE_CURVE('',#178,#178,#217,.T.);
#200=EDGE_CURVE('',#179,#179,#218,.T.);
#201=EDGE_CURVE('',#168,#169,#219,.T.);
#202=EDGE_CURVE('',#173,#172,#220,.T.);
#203=EDGE_CURVE('',#164,#165,#221,.T.);
#204=CIRCLE('',#223,6.50000000000001);
#205=CIRCLE('',#224,6.5);
#206=CIRCLE('',#225,6.50000000000001);
#207=CIRCLE('',#226,6.5);
#208=CIRCLE('',#227,6.50000000000001);
#209=CIRCLE('',#228,6.5);
#210=CIRCLE('',#229,6.5);
#211=CIRCLE('',#231,2.12500000000001);
#212=CIRCLE('',#232,2.125);
#213=CIRCLE('',#233,2.12500000000001);
#214=CIRCLE('',#235,7.5);
#215=CIRCLE('',#237,8.);
#216=CIRCLE('',#239,8.00000000000001);
#217=CIRCLE('',#241,7.00000000000001);
#218=CIRCLE('',#243,7.);
#219=CIRCLE('',#246,2.12500000000001);
#220=CIRCLE('',#249,2.125);
#221=CIRCLE('',#252,2.12500000000001);
#222=AXIS2_PLACEMENT_3D('',#327,#255,#256);
#223=AXIS2_PLACEMENT_3D('',#328,#257,#258);
#224=AXIS2_PLACEMENT_3D('',#333,#260,#261);
#225=AXIS2_PLACEMENT_3D('',#337,#263,#264);
#226=AXIS2_PLACEMENT_3D('',#341,#266,#267);
#227=AXIS2_PLACEMENT_3D('',#345,#269,#270);
#228=AXIS2_PLACEMENT_3D('',#349,#272,#273);
#229=AXIS2_PLACEMENT_3D('',#352,#275,#276);
#230=AXIS2_PLACEMENT_3D('',#354,#277,#278);
#231=AXIS2_PLACEMENT_3D('',#355,#279,#280);
#232=AXIS2_PLACEMENT_3D('',#356,#281,#282);
#233=AXIS2_PLACEMENT_3D('',#357,#283,#284);
#234=AXIS2_PLACEMENT_3D('',#358,#285,#286);
#235=AXIS2_PLACEMENT_3D('',#359,#287,#288);
#236=AXIS2_PLACEMENT_3D('',#361,#289,#290);
#237=AXIS2_PLACEMENT_3D('',#362,#291,#292);
#238=AXIS2_PLACEMENT_3D('',#364,#293,#294);
#239=AXIS2_PLACEMENT_3D('',#365,#295,#296);
#240=AXIS2_PLACEMENT_3D('',#367,#297,#298);
#241=AXIS2_PLACEMENT_3D('',#368,#299,#300);
#242=AXIS2_PLACEMENT_3D('',#370,#301,#302);
#243=AXIS2_PLACEMENT_3D('',#371,#303,#304);
#244=AXIS2_PLACEMENT_3D('',#373,#305,#306);
#245=AXIS2_PLACEMENT_3D('',#374,#307,#308);
#246=AXIS2_PLACEMENT_3D('',#375,#309,#310);
#247=AXIS2_PLACEMENT_3D('',#376,#311,#312);
#248=AXIS2_PLACEMENT_3D('',#377,#313,#314);
#249=AXIS2_PLACEMENT_3D('',#378,#315,#316);
#250=AXIS2_PLACEMENT_3D('',#379,#317,#318);
#251=AXIS2_PLACEMENT_3D('',#380,#319,#320);
#252=AXIS2_PLACEMENT_3D('',#381,#321,#322);
#253=AXIS2_PLACEMENT_3D('',#382,#323,#324);
#254=AXIS2_PLACEMENT_3D('',#383,#325,#326);
#255=DIRECTION('',(0.,0.,1.));
#256=DIRECTION('',(1.,0.,0.));
#257=DIRECTION('',(-7.59772381461044E-17,-1.,0.));
#258=DIRECTION('',(1.,0.,0.));
#259=DIRECTION('',(0.,-1.,0.));
#260=DIRECTION('',(0.,1.,0.));
#261=DIRECTION('',(0.,0.,-1.));
#262=DIRECTION('',(0.,1.,0.));
#263=DIRECTION('',(-7.59772381461044E-17,-1.,0.));
#264=DIRECTION('',(1.,0.,0.));
#265=DIRECTION('',(0.,-1.,0.));
#266=DIRECTION('',(0.,1.,0.));
#267=DIRECTION('',(0.,0.,-1.));
#268=DIRECTION('',(0.,1.,0.));
#269=DIRECTION('',(-7.59772381461044E-17,-1.,0.));
#270=DIRECTION('',(1.,0.,0.));
#271=DIRECTION('',(0.,1.,0.));
#272=DIRECTION('',(0.,-1.,0.));
#273=DIRECTION('',(0.,0.,1.));
#274=DIRECTION('',(0.,-1.,0.));
#275=DIRECTION('',(-7.59772381461044E-17,-1.,0.));
#276=DIRECTION('',(1.,0.,0.));
#277=DIRECTION('',(-7.59772381461044E-17,-1.,0.));
#278=DIRECTION('',(-1.,0.,0.));
#279=DIRECTION('',(7.59772381461044E-17,1.,0.));
#280=DIRECTION('',(-0.999999999999999,0.,0.));
#281=DIRECTION('',(-7.59772381461044E-17,-1.,0.));
#282=DIRECTION('',(-1.,0.,0.));
#283=DIRECTION('',(7.59772381461044E-17,1.,0.));
#284=DIRECTION('',(-0.999999999999999,0.,0.));
#285=DIRECTION('',(7.59772381461044E-17,1.,0.));
#286=DIRECTION('',(1.,-7.63278329429795E-17,0.));
#287=DIRECTION('',(-7.59772381461044E-17,-1.,0.));
#288=DIRECTION('',(1.,0.,0.));
#289=DIRECTION('',(-7.59772381461044E-17,-1.,0.));
#290=DIRECTION('',(-1.,6.93889390390723E-17,0.));
#291=DIRECTION('',(-7.59772381461044E-17,-1.,0.));
#292=DIRECTION('',(1.,0.,0.));
#293=DIRECTION('',(-7.59772381461044E-17,-1.,0.));
#294=DIRECTION('',(-1.,5.50979168548465E-17,0.));
#295=DIRECTION('',(-7.59772381461044E-17,-1.,0.));
#296=DIRECTION('',(1.,0.,0.));
#297=DIRECTION('',(-7.59772381461044E-17,-1.,0.));
#298=DIRECTION('',(-1.,0.,0.));
#299=DIRECTION('',(-7.59772381461044E-17,-1.,0.));
#300=DIRECTION('',(1.,0.,0.));
#301=DIRECTION('',(7.59772381461044E-17,1.,0.));
#302=DIRECTION('',(1.,-7.63278329429795E-17,0.));
#303=DIRECTION('',(-7.59772381461044E-17,-1.,0.));
#304=DIRECTION('',(1.,0.,0.));
#305=DIRECTION('',(-7.59772381461044E-17,-1.,0.));
#306=DIRECTION('',(-1.,0.,0.));
#307=DIRECTION('',(7.59772381461044E-17,1.,0.));
#308=DIRECTION('',(1.,-7.63278329429795E-17,0.));
#309=DIRECTION('',(0.,-1.,0.));
#310=DIRECTION('',(0.,0.,1.));
#311=DIRECTION('',(0.,-1.,0.));
#312=DIRECTION('',(0.,0.,1.));
#313=DIRECTION('',(0.,-1.,0.));
#314=DIRECTION('',(0.,0.,1.));
#315=DIRECTION('',(0.,1.,0.));
#316=DIRECTION('',(0.,0.,1.));
#317=DIRECTION('',(0.,1.,0.));
#318=DIRECTION('',(0.,0.,-1.));
#319=DIRECTION('',(0.,-1.,0.));
#320=DIRECTION('',(0.,0.,1.));
#321=DIRECTION('',(0.,-1.,0.));
#322=DIRECTION('',(0.,0.,1.));
#323=DIRECTION('',(0.,-1.,0.));
#324=DIRECTION('',(0.,0.,1.));
#325=DIRECTION('',(0.,-1.,0.));
#326=DIRECTION('',(0.,0.,1.));
#327=CARTESIAN_POINT('',(0.,0.,0.));
#328=CARTESIAN_POINT('',(50.,62.,0.));
#329=CARTESIAN_POINT('',(54.4641890279004,62.,-4.72451228415943));
#330=CARTESIAN_POINT('',(54.4641890279002,62.,4.72451228415968));
#331=CARTESIAN_POINT('',(54.4641890279004,56.5000000000001,-4.72451228415943));
#332=CARTESIAN_POINT('',(54.4641890279004,51.0000000000001,-4.72451228415943));
#333=CARTESIAN_POINT('',(50.,51.0000000000001,0.));
#334=CARTESIAN_POINT('',(51.8594531446234,51.0000000000001,-6.22835724753727));
#335=CARTESIAN_POINT('',(51.8594531446234,56.5000000000001,-6.22835724753727));
#336=CARTESIAN_POINT('',(51.8594531446234,62.,-6.22835724753727));
#337=CARTESIAN_POINT('',(50.,62.,0.));
#338=CARTESIAN_POINT('',(43.676357827476,62.,-1.50384496337747));
#339=CARTESIAN_POINT('',(43.676357827476,56.55,-1.50384496337747));
#340=CARTESIAN_POINT('',(43.676357827476,51.0000000000001,-1.50384496337747));
#341=CARTESIAN_POINT('',(50.,51.0000000000001,0.));
#342=CARTESIAN_POINT('',(43.676357827476,51.0000000000001,1.50384496337771));
#343=CARTESIAN_POINT('',(43.676357827476,56.55,1.50384496337771));
#344=CARTESIAN_POINT('',(43.676357827476,62.,1.50384496337771));
#345=CARTESIAN_POINT('',(50.,62.,0.));
#346=CARTESIAN_POINT('',(51.8594531446235,62.,6.22835724753724));
#347=CARTESIAN_POINT('',(51.8594531446236,56.55,6.22835724753724));
#348=CARTESIAN_POINT('',(51.8594531446236,51.0000000000001,6.22835724753724));
#349=CARTESIAN_POINT('',(50.,51.0000000000001,0.));
#350=CARTESIAN_POINT('',(54.4641890279002,51.0000000000001,4.72451228415968));
#351=CARTESIAN_POINT('',(54.4641890279002,56.55,4.72451228415968));
#352=CARTESIAN_POINT('',(50.,50.,0.));
#353=CARTESIAN_POINT('',(56.5,50.,0.));
#354=CARTESIAN_POINT('',(50.,50.,0.));
#355=CARTESIAN_POINT('',(53.9124999999999,62.,-6.77664878461308));
#356=CARTESIAN_POINT('',(53.9124999999999,62.,6.77664878461339));
#357=CARTESIAN_POINT('',(42.1749999999999,62.,1.51992389262791E-13));
#358=CARTESIAN_POINT('',(56.5,62.,0.));
#359=CARTESIAN_POINT('',(50.,63.,0.));
#360=CARTESIAN_POINT('',(57.5,63.,0.));
#361=CARTESIAN_POINT('',(50.,63.,0.));
#362=CARTESIAN_POINT('',(50.,62.5,0.));
#363=CARTESIAN_POINT('',(58.,62.5,0.));
#364=CARTESIAN_POINT('',(50.,63.,0.));
#365=CARTESIAN_POINT('',(50.,60.,0.));
#366=CARTESIAN_POINT('',(58.,60.,0.));
#367=CARTESIAN_POINT('',(50.,50.,0.));
#368=CARTESIAN_POINT('',(50.,60.,0.));
#369=CARTESIAN_POINT('',(57.,60.,0.));
#370=CARTESIAN_POINT('',(58.,60.,0.));
#371=CARTESIAN_POINT('',(50.,50.,0.));
#372=CARTESIAN_POINT('',(57.,50.,0.));
#373=CARTESIAN_POINT('',(50.,50.,0.));
#374=CARTESIAN_POINT('',(57.,50.,0.));
#375=CARTESIAN_POINT('',(42.1749999999999,51.0000000000001,1.51992389262791E-13));
#376=CARTESIAN_POINT('',(46.0874999999999,51.0000000000001,1.0878509669626E-13));
#377=CARTESIAN_POINT('',(42.1749999999999,62.1000000000001,1.51992389262791E-13));
#378=CARTESIAN_POINT('',(53.9124999999999,51.0000000000001,6.77664878461339));
#379=CARTESIAN_POINT('',(51.9562499999999,51.0000000000001,3.38832439230673));
#380=CARTESIAN_POINT('',(53.9124999999999,62.1000000000001,6.77664878461339));
#381=CARTESIAN_POINT('',(53.9124999999999,51.0000000000002,-6.77664878461308));
#382=CARTESIAN_POINT('',(51.9562499999999,51.0000000000001,-3.38832439230651));
#383=CARTESIAN_POINT('',(53.9124999999999,62.1000000000002,-6.77664878461308));
#384=MECHANICAL_DESIGN_GEOMETRIC_PRESENTATION_REPRESENTATION('',(#24),#385);
#385=(
GEOMETRIC_REPRESENTATION_CONTEXT(3)
GLOBAL_UNCERTAINTY_ASSIGNED_CONTEXT((#386))
GLOBAL_UNIT_ASSIGNED_CONTEXT((#392,#388,#387))
REPRESENTATION_CONTEXT('Staubschutzkappe_M12','TOP_LEVEL_ASSEMBLY_PART')
);
#386=UNCERTAINTY_MEASURE_WITH_UNIT(LENGTH_MEASURE(2.E-5),#392,
'DISTANCE_ACCURACY_VALUE','Maximum Tolerance applied to model');
#387=(
NAMED_UNIT(*)
SI_UNIT($,.STERADIAN.)
SOLID_ANGLE_UNIT()
);
#388=(
CONVERSION_BASED_UNIT('DEGREE',#390)
NAMED_UNIT(#389)
PLANE_ANGLE_UNIT()
);
#389=DIMENSIONAL_EXPONENTS(0.,0.,0.,0.,0.,0.,0.);
#390=PLANE_ANGLE_MEASURE_WITH_UNIT(PLANE_ANGLE_MEASURE(0.0174532925),#391);
#391=(
NAMED_UNIT(*)
PLANE_ANGLE_UNIT()
SI_UNIT($,.RADIAN.)
);
#392=(
LENGTH_UNIT()
NAMED_UNIT(*)
SI_UNIT(.MILLI.,.METRE.)
);
ENDSEC;
END-ISO-10303-21;
