ISO-10303-21;
HEADER;
/* Generated by software containing ST-Developer
 * from STEP Tools, Inc. (www.steptools.com) 
 */
/* OPTION: using custom schema-name function */

FILE_DESCRIPTION(
/* description */ (''),
/* implementation_level */ '2;1');

FILE_NAME(
/* name */ 'Sechskantmutter_M8x1_SW10.stp',
/* time_stamp */ '2018-09-04T15:12:26+02:00',
/* author */ (''),
/* organization */ (''),
/* preprocessor_version */ 'ST-DEVELOPER v16',
/* originating_system */ 'SIEMENS PLM Software NX 10.0',
/* authorisation */ '');

FILE_SCHEMA (('AUTOMOTIVE_DESIGN { 1 0 10303 214 3 1 1 1 }'));
ENDSEC;

DATA;
#10=SHAPE_REPRESENTATION_RELATIONSHIP('None',
'relationship between Sechskantmutter_M8x1_SW10-None and Sechskantmutt
er_M8x1_SW10-None',#22,#11);
#11=ADVANCED_BREP_SHAPE_REPRESENTATION('Sechskantmutter_M8x1_SW10-None',
(#32),#449);
#12=SHAPE_DEFINITION_REPRESENTATION(#13,#22);
#13=PRODUCT_DEFINITION_SHAPE('','',#14);
#14=PRODUCT_DEFINITION(' ','',#16,#15);
#15=PRODUCT_DEFINITION_CONTEXT('part definition',#21,'design');
#16=PRODUCT_DEFINITION_FORMATION_WITH_SPECIFIED_SOURCE(' ',' ',#18,
 .NOT_KNOWN.);
#17=PRODUCT_RELATED_PRODUCT_CATEGORY('part','',(#18));
#18=PRODUCT('Sechskantmutter_M8x1_SW10','Sechskantmutter_M8x1_SW10',' ',
(#19));
#19=PRODUCT_CONTEXT(' ',#21,'mechanical');
#20=APPLICATION_PROTOCOL_DEFINITION('international standard',
'automotive_design',2010,#21);
#21=APPLICATION_CONTEXT(
'core data for automotive mechanical design processes');
#22=SHAPE_REPRESENTATION('Sechskantmutter_M8x1_SW10-None',(#260),#449);
#23=PRESENTATION_LAYER_ASSIGNMENT('1','Layer 1',(#32));
#24=STYLED_ITEM('',(#25),#32);
#25=PRESENTATION_STYLE_ASSIGNMENT((#26));
#26=SURFACE_STYLE_USAGE(.BOTH.,#27);
#27=SURFACE_SIDE_STYLE('',(#28));
#28=SURFACE_STYLE_FILL_AREA(#29);
#29=FILL_AREA_STYLE('',(#30));
#30=FILL_AREA_STYLE_COLOUR('',#31);
#31=COLOUR_RGB('Medium Gray',0.490196078431373,0.490196078431373,0.490196078431373);
#32=MANIFOLD_SOLID_BREP('',#33);
#33=CLOSED_SHELL('',(#55,#56,#57,#58,#59,#60,#61,#62,#63,#64,#65,#66,#67,
#68,#69));
#34=CONICAL_SURFACE('',#278,5.,75.0000000000001);
#35=CONICAL_SURFACE('',#279,5.,75.0000000000001);
#36=CONICAL_SURFACE('',#280,5.,75.0000000000001);
#37=CONICAL_SURFACE('',#281,5.,75.0000000000001);
#38=CONICAL_SURFACE('',#282,5.,75.0000000000001);
#39=CONICAL_SURFACE('',#283,5.,75.0000000000001);
#40=CYLINDRICAL_SURFACE('',#269,3.4);
#41=FACE_BOUND('',#96,.T.);
#42=FACE_BOUND('',#97,.T.);
#43=FACE_BOUND('',#98,.T.);
#44=FACE_BOUND('',#99,.T.);
#45=FACE_BOUND('',#100,.T.);
#46=FACE_BOUND('',#101,.T.);
#47=CIRCLE('',#267,3.4);
#48=CIRCLE('',#268,3.4);
#49=CIRCLE('',#271,5.);
#50=CIRCLE('',#272,5.);
#51=CIRCLE('',#273,5.);
#52=CIRCLE('',#274,5.);
#53=CIRCLE('',#275,5.);
#54=CIRCLE('',#276,5.);
#55=ADVANCED_FACE('',(#78),#70,.F.);
#56=ADVANCED_FACE('',(#79),#71,.F.);
#57=ADVANCED_FACE('',(#80),#72,.F.);
#58=ADVANCED_FACE('',(#81),#73,.F.);
#59=ADVANCED_FACE('',(#82),#74,.F.);
#60=ADVANCED_FACE('',(#83),#75,.F.);
#61=ADVANCED_FACE('',(#41,#42),#40,.F.);
#62=ADVANCED_FACE('',(#43,#44),#76,.T.);
#63=ADVANCED_FACE('',(#45,#46),#77,.F.);
#64=ADVANCED_FACE('',(#84),#34,.T.);
#65=ADVANCED_FACE('',(#85),#35,.T.);
#66=ADVANCED_FACE('',(#86),#36,.T.);
#67=ADVANCED_FACE('',(#87),#37,.T.);
#68=ADVANCED_FACE('',(#88),#38,.T.);
#69=ADVANCED_FACE('',(#89),#39,.T.);
#70=PLANE('',#261);
#71=PLANE('',#262);
#72=PLANE('',#263);
#73=PLANE('',#264);
#74=PLANE('',#265);
#75=PLANE('',#266);
#76=PLANE('',#270);
#77=PLANE('',#277);
#78=FACE_OUTER_BOUND('',#90,.T.);
#79=FACE_OUTER_BOUND('',#91,.T.);
#80=FACE_OUTER_BOUND('',#92,.T.);
#81=FACE_OUTER_BOUND('',#93,.T.);
#82=FACE_OUTER_BOUND('',#94,.T.);
#83=FACE_OUTER_BOUND('',#95,.T.);
#84=FACE_OUTER_BOUND('',#102,.T.);
#85=FACE_OUTER_BOUND('',#103,.T.);
#86=FACE_OUTER_BOUND('',#104,.T.);
#87=FACE_OUTER_BOUND('',#105,.T.);
#88=FACE_OUTER_BOUND('',#106,.T.);
#89=FACE_OUTER_BOUND('',#107,.T.);
#90=EDGE_LOOP('',(#132,#133,#134,#135,#136));
#91=EDGE_LOOP('',(#137,#138,#139,#140,#141));
#92=EDGE_LOOP('',(#142,#143,#144,#145,#146));
#93=EDGE_LOOP('',(#147,#148,#149,#150,#151));
#94=EDGE_LOOP('',(#152,#153,#154,#155,#156));
#95=EDGE_LOOP('',(#157,#158,#159,#160,#161));
#96=EDGE_LOOP('',(#162));
#97=EDGE_LOOP('',(#163));
#98=EDGE_LOOP('',(#164,#165,#166,#167,#168,#169));
#99=EDGE_LOOP('',(#170));
#100=EDGE_LOOP('',(#171,#172,#173,#174,#175,#176));
#101=EDGE_LOOP('',(#177));
#102=EDGE_LOOP('',(#178,#179,#180));
#103=EDGE_LOOP('',(#181,#182,#183));
#104=EDGE_LOOP('',(#184,#185,#186));
#105=EDGE_LOOP('',(#187,#188,#189));
#106=EDGE_LOOP('',(#190,#191,#192));
#107=EDGE_LOOP('',(#193,#194,#195));
#108=LINE('',#351,#120);
#109=LINE('',#353,#121);
#110=LINE('',#355,#122);
#111=LINE('',#368,#123);
#112=LINE('',#370,#124);
#113=LINE('',#382,#125);
#114=LINE('',#384,#126);
#115=LINE('',#396,#127);
#116=LINE('',#398,#128);
#117=LINE('',#410,#129);
#118=LINE('',#412,#130);
#119=LINE('',#423,#131);
#120=VECTOR('',#286,1.);
#121=VECTOR('',#287,1.);
#122=VECTOR('',#288,1.);
#123=VECTOR('',#291,1.);
#124=VECTOR('',#292,1.);
#125=VECTOR('',#295,1.);
#126=VECTOR('',#296,1.);
#127=VECTOR('',#299,1.);
#128=VECTOR('',#300,1.);
#129=VECTOR('',#303,1.);
#130=VECTOR('',#304,1.);
#131=VECTOR('',#307,1.);
#132=ORIENTED_EDGE('',*,*,#216,.F.);
#133=ORIENTED_EDGE('',*,*,#217,.F.);
#134=ORIENTED_EDGE('',*,*,#218,.F.);
#135=ORIENTED_EDGE('',*,*,#219,.T.);
#136=ORIENTED_EDGE('',*,*,#220,.F.);
#137=ORIENTED_EDGE('',*,*,#221,.F.);
#138=ORIENTED_EDGE('',*,*,#222,.F.);
#139=ORIENTED_EDGE('',*,*,#223,.F.);
#140=ORIENTED_EDGE('',*,*,#217,.T.);
#141=ORIENTED_EDGE('',*,*,#224,.F.);
#142=ORIENTED_EDGE('',*,*,#225,.F.);
#143=ORIENTED_EDGE('',*,*,#226,.F.);
#144=ORIENTED_EDGE('',*,*,#227,.F.);
#145=ORIENTED_EDGE('',*,*,#222,.T.);
#146=ORIENTED_EDGE('',*,*,#228,.F.);
#147=ORIENTED_EDGE('',*,*,#229,.F.);
#148=ORIENTED_EDGE('',*,*,#230,.F.);
#149=ORIENTED_EDGE('',*,*,#231,.F.);
#150=ORIENTED_EDGE('',*,*,#226,.T.);
#151=ORIENTED_EDGE('',*,*,#232,.F.);
#152=ORIENTED_EDGE('',*,*,#233,.F.);
#153=ORIENTED_EDGE('',*,*,#234,.F.);
#154=ORIENTED_EDGE('',*,*,#235,.F.);
#155=ORIENTED_EDGE('',*,*,#230,.T.);
#156=ORIENTED_EDGE('',*,*,#236,.F.);
#157=ORIENTED_EDGE('',*,*,#237,.F.);
#158=ORIENTED_EDGE('',*,*,#219,.F.);
#159=ORIENTED_EDGE('',*,*,#238,.F.);
#160=ORIENTED_EDGE('',*,*,#234,.T.);
#161=ORIENTED_EDGE('',*,*,#239,.F.);
#162=ORIENTED_EDGE('',*,*,#240,.T.);
#163=ORIENTED_EDGE('',*,*,#241,.F.);
#164=ORIENTED_EDGE('',*,*,#218,.T.);
#165=ORIENTED_EDGE('',*,*,#223,.T.);
#166=ORIENTED_EDGE('',*,*,#227,.T.);
#167=ORIENTED_EDGE('',*,*,#231,.T.);
#168=ORIENTED_EDGE('',*,*,#235,.T.);
#169=ORIENTED_EDGE('',*,*,#238,.T.);
#170=ORIENTED_EDGE('',*,*,#240,.F.);
#171=ORIENTED_EDGE('',*,*,#242,.T.);
#172=ORIENTED_EDGE('',*,*,#243,.T.);
#173=ORIENTED_EDGE('',*,*,#244,.T.);
#174=ORIENTED_EDGE('',*,*,#245,.T.);
#175=ORIENTED_EDGE('',*,*,#246,.T.);
#176=ORIENTED_EDGE('',*,*,#247,.T.);
#177=ORIENTED_EDGE('',*,*,#241,.T.);
#178=ORIENTED_EDGE('',*,*,#233,.T.);
#179=ORIENTED_EDGE('',*,*,#242,.F.);
#180=ORIENTED_EDGE('',*,*,#239,.T.);
#181=ORIENTED_EDGE('',*,*,#220,.T.);
#182=ORIENTED_EDGE('',*,*,#237,.T.);
#183=ORIENTED_EDGE('',*,*,#247,.F.);
#184=ORIENTED_EDGE('',*,*,#229,.T.);
#185=ORIENTED_EDGE('',*,*,#243,.F.);
#186=ORIENTED_EDGE('',*,*,#236,.T.);
#187=ORIENTED_EDGE('',*,*,#225,.T.);
#188=ORIENTED_EDGE('',*,*,#244,.F.);
#189=ORIENTED_EDGE('',*,*,#232,.T.);
#190=ORIENTED_EDGE('',*,*,#228,.T.);
#191=ORIENTED_EDGE('',*,*,#221,.T.);
#192=ORIENTED_EDGE('',*,*,#245,.F.);
#193=ORIENTED_EDGE('',*,*,#224,.T.);
#194=ORIENTED_EDGE('',*,*,#216,.T.);
#195=ORIENTED_EDGE('',*,*,#246,.F.);
#196=VERTEX_POINT('',#349);
#197=VERTEX_POINT('',#350);
#198=VERTEX_POINT('',#352);
#199=VERTEX_POINT('',#354);
#200=VERTEX_POINT('',#356);
#201=VERTEX_POINT('',#366);
#202=VERTEX_POINT('',#367);
#203=VERTEX_POINT('',#369);
#204=VERTEX_POINT('',#380);
#205=VERTEX_POINT('',#381);
#206=VERTEX_POINT('',#383);
#207=VERTEX_POINT('',#394);
#208=VERTEX_POINT('',#395);
#209=VERTEX_POINT('',#397);
#210=VERTEX_POINT('',#408);
#211=VERTEX_POINT('',#409);
#212=VERTEX_POINT('',#411);
#213=VERTEX_POINT('',#422);
#214=VERTEX_POINT('',#430);
#215=VERTEX_POINT('',#432);
#216=EDGE_CURVE('',#196,#197,#248,.T.);
#217=EDGE_CURVE('',#198,#196,#108,.T.);
#218=EDGE_CURVE('',#199,#198,#109,.T.);
#219=EDGE_CURVE('',#199,#200,#110,.T.);
#220=EDGE_CURVE('',#197,#200,#249,.T.);
#221=EDGE_CURVE('',#201,#202,#250,.T.);
#222=EDGE_CURVE('',#203,#201,#111,.T.);
#223=EDGE_CURVE('',#198,#203,#112,.T.);
#224=EDGE_CURVE('',#202,#196,#251,.T.);
#225=EDGE_CURVE('',#204,#205,#252,.T.);
#226=EDGE_CURVE('',#206,#204,#113,.T.);
#227=EDGE_CURVE('',#203,#206,#114,.T.);
#228=EDGE_CURVE('',#205,#201,#253,.T.);
#229=EDGE_CURVE('',#207,#208,#254,.T.);
#230=EDGE_CURVE('',#209,#207,#115,.T.);
#231=EDGE_CURVE('',#206,#209,#116,.T.);
#232=EDGE_CURVE('',#208,#204,#255,.T.);
#233=EDGE_CURVE('',#210,#211,#256,.T.);
#234=EDGE_CURVE('',#212,#210,#117,.T.);
#235=EDGE_CURVE('',#209,#212,#118,.T.);
#236=EDGE_CURVE('',#211,#207,#257,.T.);
#237=EDGE_CURVE('',#200,#213,#258,.T.);
#238=EDGE_CURVE('',#212,#199,#119,.T.);
#239=EDGE_CURVE('',#213,#210,#259,.T.);
#240=EDGE_CURVE('',#214,#214,#47,.T.);
#241=EDGE_CURVE('',#215,#215,#48,.T.);
#242=EDGE_CURVE('',#213,#211,#49,.T.);
#243=EDGE_CURVE('',#211,#208,#50,.T.);
#244=EDGE_CURVE('',#208,#205,#51,.T.);
#245=EDGE_CURVE('',#205,#202,#52,.T.);
#246=EDGE_CURVE('',#202,#197,#53,.T.);
#247=EDGE_CURVE('',#197,#213,#54,.T.);
#248=B_SPLINE_CURVE_WITH_KNOTS('',3,(#345,#346,#347,#348),.UNSPECIFIED.,
 .F.,.F.,(4,4),(0.,1.),.UNSPECIFIED.);
#249=B_SPLINE_CURVE_WITH_KNOTS('',3,(#357,#358,#359,#360),.UNSPECIFIED.,
 .F.,.F.,(4,4),(0.,1.),.UNSPECIFIED.);
#250=B_SPLINE_CURVE_WITH_KNOTS('',3,(#362,#363,#364,#365),.UNSPECIFIED.,
 .F.,.F.,(4,4),(0.,1.),.UNSPECIFIED.);
#251=B_SPLINE_CURVE_WITH_KNOTS('',3,(#371,#372,#373,#374),.UNSPECIFIED.,
 .F.,.F.,(4,4),(0.,1.),.UNSPECIFIED.);
#252=B_SPLINE_CURVE_WITH_KNOTS('',3,(#376,#377,#378,#379),.UNSPECIFIED.,
 .F.,.F.,(4,4),(0.,1.),.UNSPECIFIED.);
#253=B_SPLINE_CURVE_WITH_KNOTS('',3,(#385,#386,#387,#388),.UNSPECIFIED.,
 .F.,.F.,(4,4),(0.,1.),.UNSPECIFIED.);
#254=B_SPLINE_CURVE_WITH_KNOTS('',3,(#390,#391,#392,#393),.UNSPECIFIED.,
 .F.,.F.,(4,4),(0.,1.),.UNSPECIFIED.);
#255=B_SPLINE_CURVE_WITH_KNOTS('',3,(#399,#400,#401,#402),.UNSPECIFIED.,
 .F.,.F.,(4,4),(0.,1.),.UNSPECIFIED.);
#256=B_SPLINE_CURVE_WITH_KNOTS('',3,(#404,#405,#406,#407),.UNSPECIFIED.,
 .F.,.F.,(4,4),(0.,1.),.UNSPECIFIED.);
#257=B_SPLINE_CURVE_WITH_KNOTS('',3,(#413,#414,#415,#416),.UNSPECIFIED.,
 .F.,.F.,(4,4),(0.,1.),.UNSPECIFIED.);
#258=B_SPLINE_CURVE_WITH_KNOTS('',3,(#418,#419,#420,#421),.UNSPECIFIED.,
 .F.,.F.,(4,4),(0.,1.),.UNSPECIFIED.);
#259=B_SPLINE_CURVE_WITH_KNOTS('',3,(#424,#425,#426,#427),.UNSPECIFIED.,
 .F.,.F.,(4,4),(0.,1.),.UNSPECIFIED.);
#260=AXIS2_PLACEMENT_3D('',#344,#284,#285);
#261=AXIS2_PLACEMENT_3D('',#361,#289,#290);
#262=AXIS2_PLACEMENT_3D('',#375,#293,#294);
#263=AXIS2_PLACEMENT_3D('',#389,#297,#298);
#264=AXIS2_PLACEMENT_3D('',#403,#301,#302);
#265=AXIS2_PLACEMENT_3D('',#417,#305,#306);
#266=AXIS2_PLACEMENT_3D('',#428,#308,#309);
#267=AXIS2_PLACEMENT_3D('',#429,#310,#311);
#268=AXIS2_PLACEMENT_3D('',#431,#312,#313);
#269=AXIS2_PLACEMENT_3D('',#433,#314,#315);
#270=AXIS2_PLACEMENT_3D('',#434,#316,#317);
#271=AXIS2_PLACEMENT_3D('',#435,#318,#319);
#272=AXIS2_PLACEMENT_3D('',#436,#320,#321);
#273=AXIS2_PLACEMENT_3D('',#437,#322,#323);
#274=AXIS2_PLACEMENT_3D('',#438,#324,#325);
#275=AXIS2_PLACEMENT_3D('',#439,#326,#327);
#276=AXIS2_PLACEMENT_3D('',#440,#328,#329);
#277=AXIS2_PLACEMENT_3D('',#441,#330,#331);
#278=AXIS2_PLACEMENT_3D('',#442,#332,#333);
#279=AXIS2_PLACEMENT_3D('',#443,#334,#335);
#280=AXIS2_PLACEMENT_3D('',#444,#336,#337);
#281=AXIS2_PLACEMENT_3D('',#445,#338,#339);
#282=AXIS2_PLACEMENT_3D('',#446,#340,#341);
#283=AXIS2_PLACEMENT_3D('',#447,#342,#343);
#284=DIRECTION('',(0.,0.,1.));
#285=DIRECTION('',(1.,0.,0.));
#286=DIRECTION('',(0.,0.,1.));
#287=DIRECTION('',(-5.55111512312578E-17,-1.,0.));
#288=DIRECTION('',(0.,0.,1.));
#289=DIRECTION('',(-1.,5.55111512312578E-17,0.));
#290=DIRECTION('',(5.55111512312578E-17,1.,0.));
#291=DIRECTION('',(0.,0.,1.));
#292=DIRECTION('',(-0.866025403784439,-0.5,0.));
#293=DIRECTION('',(-0.5,0.866025403784439,0.));
#294=DIRECTION('',(0.866025403784439,0.5,0.));
#295=DIRECTION('',(0.,0.,1.));
#296=DIRECTION('',(-0.866025403784439,0.5,0.));
#297=DIRECTION('',(0.5,0.866025403784439,0.));
#298=DIRECTION('',(0.866025403784439,-0.5,0.));
#299=DIRECTION('',(0.,0.,1.));
#300=DIRECTION('',(-2.77555756156289E-16,1.,0.));
#301=DIRECTION('',(1.,2.77555756156289E-16,0.));
#302=DIRECTION('',(2.77555756156289E-16,-1.,0.));
#303=DIRECTION('',(0.,0.,1.));
#304=DIRECTION('',(0.866025403784439,0.5,0.));
#305=DIRECTION('',(0.5,-0.866025403784439,0.));
#306=DIRECTION('',(-0.866025403784439,-0.5,0.));
#307=DIRECTION('',(0.866025403784439,-0.5,0.));
#308=DIRECTION('',(-0.5,-0.866025403784439,0.));
#309=DIRECTION('',(-0.866025403784439,0.5,0.));
#310=DIRECTION('',(0.,0.,-1.));
#311=DIRECTION('',(-0.866025403784439,-0.5,0.));
#312=DIRECTION('',(0.,0.,-1.));
#313=DIRECTION('',(-0.866025403784439,-0.5,0.));
#314=DIRECTION('',(0.,0.,1.));
#315=DIRECTION('',(-0.5,0.866025403784439,0.));
#316=DIRECTION('',(0.,0.,-1.));
#317=DIRECTION('',(0.5,-0.866025403784439,0.));
#318=DIRECTION('',(0.,0.,1.));
#319=DIRECTION('',(-0.5,0.866025403784439,0.));
#320=DIRECTION('',(0.,0.,1.));
#321=DIRECTION('',(-0.5,0.866025403784439,0.));
#322=DIRECTION('',(0.,0.,1.));
#323=DIRECTION('',(-0.5,0.866025403784439,0.));
#324=DIRECTION('',(0.,0.,1.));
#325=DIRECTION('',(-0.5,0.866025403784439,0.));
#326=DIRECTION('',(0.,0.,1.));
#327=DIRECTION('',(-0.5,0.866025403784439,0.));
#328=DIRECTION('',(0.,0.,1.));
#329=DIRECTION('',(-0.5,0.866025403784439,0.));
#330=DIRECTION('',(0.,0.,-1.));
#331=DIRECTION('',(0.5,-0.866025403784439,0.));
#332=DIRECTION('',(0.,0.,-1.));
#333=DIRECTION('',(0.5,-0.866025403784439,4.64195849963654E-19));
#334=DIRECTION('',(0.,0.,-1.));
#335=DIRECTION('',(0.5,-0.866025403784439,4.64195849963654E-19));
#336=DIRECTION('',(0.,0.,-1.));
#337=DIRECTION('',(0.5,-0.866025403784439,4.64195849963654E-19));
#338=DIRECTION('',(0.,0.,-1.));
#339=DIRECTION('',(0.5,-0.866025403784439,4.64195849963654E-19));
#340=DIRECTION('',(0.,0.,-1.));
#341=DIRECTION('',(0.5,-0.866025403784439,4.64195849963654E-19));
#342=DIRECTION('',(0.,0.,-1.));
#343=DIRECTION('',(0.5,-0.866025403784439,4.64195849963654E-19));
#344=CARTESIAN_POINT('',(0.,0.,0.));
#345=CARTESIAN_POINT('',(5.,-2.88675134594813,1.79274057836339));
#346=CARTESIAN_POINT('',(5.,-1.92450089729875,1.92165769367943));
#347=CARTESIAN_POINT('',(5.,-0.962250448649375,2.));
#348=CARTESIAN_POINT('',(5.,8.7514649865807E-16,2.));
#349=CARTESIAN_POINT('',(5.,-2.88675134594813,1.7927405783631));
#350=CARTESIAN_POINT('',(5.,1.08992686372724E-15,2.));
#351=CARTESIAN_POINT('',(5.,-2.88675134594813,0.));
#352=CARTESIAN_POINT('',(5.,-2.88675134594813,0.));
#353=CARTESIAN_POINT('',(5.,2.88675134594813,0.));
#354=CARTESIAN_POINT('',(5.,2.88675134594813,0.));
#355=CARTESIAN_POINT('',(5.,2.88675134594813,0.));
#356=CARTESIAN_POINT('',(5.,2.88675134594813,1.7927405783631));
#357=CARTESIAN_POINT('',(5.,8.7514649865807E-16,2.));
#358=CARTESIAN_POINT('',(5.,0.962250448649377,2.));
#359=CARTESIAN_POINT('',(5.,1.92450089729875,1.92165769367943));
#360=CARTESIAN_POINT('',(5.,2.88675134594813,1.79274057836339));
#361=CARTESIAN_POINT('',(5.,2.88675134594813,0.));
#362=CARTESIAN_POINT('',(1.94270987259472E-15,-5.77350269189626,1.7927405783631));
#363=CARTESIAN_POINT('',(0.831814037851797,-5.29325463322681,1.92142265785019));
#364=CARTESIAN_POINT('',(1.66490541654548,-4.81226910147846,2.));
#365=CARTESIAN_POINT('',(2.5,-4.33012701892219,2.));
#366=CARTESIAN_POINT('',(4.40958264643903E-15,-5.77350269189626,1.7927405783631));
#367=CARTESIAN_POINT('',(2.5,-4.33012701892219,2.));
#368=CARTESIAN_POINT('',(3.97590177744483E-15,-5.77350269189626,0.));
#369=CARTESIAN_POINT('',(3.97590177744483E-15,-5.77350269189626,0.));
#370=CARTESIAN_POINT('',(5.,-2.88675134594813,0.));
#371=CARTESIAN_POINT('',(2.5,-4.33012701892219,2.));
#372=CARTESIAN_POINT('',(3.33218128795213,-3.84966692830846,2.));
#373=CARTESIAN_POINT('',(4.1692525087365,-3.36638363365772,1.92125766251878));
#374=CARTESIAN_POINT('',(5.,-2.88675134594813,1.7927405783631));
#375=CARTESIAN_POINT('',(5.,-2.88675134594813,0.));
#376=CARTESIAN_POINT('',(-5.,-2.88675134594813,1.79274057836339));
#377=CARTESIAN_POINT('',(-4.16666666666667,-3.36787657027282,1.92165769367943));
#378=CARTESIAN_POINT('',(-3.33333333333333,-3.84900179459751,2.));
#379=CARTESIAN_POINT('',(-2.5,-4.33012701892219,2.));
#380=CARTESIAN_POINT('',(-5.,-2.88675134594813,1.7927405783631));
#381=CARTESIAN_POINT('',(-2.5,-4.3301270189222,2.));
#382=CARTESIAN_POINT('',(-5.,-2.88675134594813,0.));
#383=CARTESIAN_POINT('',(-5.,-2.88675134594813,0.));
#384=CARTESIAN_POINT('',(3.54222090845063E-15,-5.77350269189626,0.));
#385=CARTESIAN_POINT('',(-2.5,-4.33012701892219,2.));
#386=CARTESIAN_POINT('',(-1.66666666666666,-4.81125224324688,2.));
#387=CARTESIAN_POINT('',(-0.83333333333333,-5.29237746757157,1.92165769367943));
#388=CARTESIAN_POINT('',(4.51374096860589E-15,-5.77350269189626,1.79274057836339));
#389=CARTESIAN_POINT('',(3.54222090845063E-15,-5.77350269189626,0.));
#390=CARTESIAN_POINT('',(-5.,2.88675134594813,1.79274057836339));
#391=CARTESIAN_POINT('',(-5.,1.92450089729875,1.92165769367943));
#392=CARTESIAN_POINT('',(-5.,0.962250448649378,2.));
#393=CARTESIAN_POINT('',(-5.,4.25896108324535E-16,2.));
#394=CARTESIAN_POINT('',(-5.,2.88675134594813,1.7927405783631));
#395=CARTESIAN_POINT('',(-5.,2.22565125738838E-16,2.));
#396=CARTESIAN_POINT('',(-5.,2.88675134594813,0.));
#397=CARTESIAN_POINT('',(-5.,2.88675134594813,0.));
#398=CARTESIAN_POINT('',(-5.,-2.88675134594813,0.));
#399=CARTESIAN_POINT('',(-5.,4.25896108324535E-16,2.));
#400=CARTESIAN_POINT('',(-5.,-0.962250448649377,2.));
#401=CARTESIAN_POINT('',(-5.,-1.92450089729876,1.92165769367943));
#402=CARTESIAN_POINT('',(-5.,-2.88675134594813,1.79274057836339));
#403=CARTESIAN_POINT('',(-5.,-2.88675134594813,0.));
#404=CARTESIAN_POINT('',(3.45613702297716E-15,5.77350269189626,1.7927405783631));
#405=CARTESIAN_POINT('',(-0.830747491263497,5.29387040418667,1.92125766251877));
#406=CARTESIAN_POINT('',(-1.66781871204787,4.81058710953593,2.));
#407=CARTESIAN_POINT('',(-2.5,4.3301270189222,2.));
#408=CARTESIAN_POINT('',(3.97590177744483E-15,5.77350269189626,1.7927405783631));
#409=CARTESIAN_POINT('',(-2.5,4.3301270189222,2.));
#410=CARTESIAN_POINT('',(2.67485917046222E-15,5.77350269189626,0.));
#411=CARTESIAN_POINT('',(2.67485917046222E-15,5.77350269189626,0.));
#412=CARTESIAN_POINT('',(-5.,2.88675134594813,0.));
#413=CARTESIAN_POINT('',(-2.5,4.3301270189222,2.));
#414=CARTESIAN_POINT('',(-3.33509458345452,3.84798493636593,2.));
#415=CARTESIAN_POINT('',(-4.1681859621482,3.36699940461757,1.92142265785019));
#416=CARTESIAN_POINT('',(-5.,2.88675134594813,1.7927405783631));
#417=CARTESIAN_POINT('',(-5.,2.88675134594813,0.));
#418=CARTESIAN_POINT('',(5.,2.88675134594813,1.79274057836339));
#419=CARTESIAN_POINT('',(4.16666666666667,3.36787657027282,1.92165769367943));
#420=CARTESIAN_POINT('',(3.33333333333333,3.84900179459751,2.));
#421=CARTESIAN_POINT('',(2.5,4.33012701892219,2.));
#422=CARTESIAN_POINT('',(2.5,4.33012701892219,2.));
#423=CARTESIAN_POINT('',(2.67485917046222E-15,5.77350269189626,0.));
#424=CARTESIAN_POINT('',(2.5,4.33012701892219,2.));
#425=CARTESIAN_POINT('',(1.66666666666667,4.81125224324688,2.));
#426=CARTESIAN_POINT('',(0.833333333333336,5.29237746757157,1.92165769367943));
#427=CARTESIAN_POINT('',(2.99585751353587E-15,5.77350269189626,1.79274057836339));
#428=CARTESIAN_POINT('',(2.67485917046222E-15,5.77350269189626,0.));
#429=CARTESIAN_POINT('',(0.,-1.92592994438724E-31,0.));
#430=CARTESIAN_POINT('',(-2.94448637286709,-1.7,0.));
#431=CARTESIAN_POINT('',(0.,-1.92592994438724E-31,2.));
#432=CARTESIAN_POINT('',(-2.94448637286709,-1.7,2.));
#433=CARTESIAN_POINT('',(0.,-1.92592994438724E-31,0.));
#434=CARTESIAN_POINT('',(0.,-1.92592994438724E-31,0.));
#435=CARTESIAN_POINT('',(1.37381656347962E-15,1.08992686372724E-15,2.));
#436=CARTESIAN_POINT('',(1.37381656347962E-15,1.08992686372724E-15,2.));
#437=CARTESIAN_POINT('',(1.37381656347962E-15,1.08992686372724E-15,2.));
#438=CARTESIAN_POINT('',(1.37381656347962E-15,1.08992686372724E-15,2.));
#439=CARTESIAN_POINT('',(1.37381656347962E-15,1.08992686372724E-15,2.));
#440=CARTESIAN_POINT('',(1.37381656347962E-15,1.08992686372724E-15,2.));
#441=CARTESIAN_POINT('',(0.,-1.92592994438724E-31,2.));
#442=CARTESIAN_POINT('',(1.37381656347962E-15,1.08992686372724E-15,2.));
#443=CARTESIAN_POINT('',(1.37381656347962E-15,1.08992686372724E-15,2.));
#444=CARTESIAN_POINT('',(1.37381656347962E-15,1.08992686372724E-15,2.));
#445=CARTESIAN_POINT('',(1.37381656347962E-15,1.08992686372724E-15,2.));
#446=CARTESIAN_POINT('',(1.37381656347962E-15,1.08992686372724E-15,2.));
#447=CARTESIAN_POINT('',(1.37381656347962E-15,1.08992686372724E-15,2.));
#448=MECHANICAL_DESIGN_GEOMETRIC_PRESENTATION_REPRESENTATION('',(#24),#449);
#449=(
GEOMETRIC_REPRESENTATION_CONTEXT(3)
GLOBAL_UNCERTAINTY_ASSIGNED_CONTEXT((#450))
GLOBAL_UNIT_ASSIGNED_CONTEXT((#456,#452,#451))
REPRESENTATION_CONTEXT('Sechskantmutter_M8x1_SW10',
'TOP_LEVEL_ASSEMBLY_PART')
);
#450=UNCERTAINTY_MEASURE_WITH_UNIT(LENGTH_MEASURE(0.0508),#456,
'DISTANCE_ACCURACY_VALUE','Maximum Tolerance applied to model');
#451=(
NAMED_UNIT(*)
SI_UNIT($,.STERADIAN.)
SOLID_ANGLE_UNIT()
);
#452=(
CONVERSION_BASED_UNIT('DEGREE',#454)
NAMED_UNIT(#453)
PLANE_ANGLE_UNIT()
);
#453=DIMENSIONAL_EXPONENTS(0.,0.,0.,0.,0.,0.,0.);
#454=PLANE_ANGLE_MEASURE_WITH_UNIT(PLANE_ANGLE_MEASURE(0.0174532925),#455);
#455=(
NAMED_UNIT(*)
PLANE_ANGLE_UNIT()
SI_UNIT($,.RADIAN.)
);
#456=(
LENGTH_UNIT()
NAMED_UNIT(*)
SI_UNIT(.MILLI.,.METRE.)
);
ENDSEC;
END-ISO-10303-21;
