ISO-10303-21;
HEADER;
/* Generated by software containing ST-Developer
 * from STEP Tools, Inc. (www.steptools.com) 
 */
/* OPTION: using custom schema-name function */

FILE_DESCRIPTION(
/* description */ (''),
/* implementation_level */ '2;1');

FILE_NAME(
/* name */ 'Sechskantmutter_M8x0_5_SW10.stp',
/* time_stamp */ '2018-09-04T15:12:26+02:00',
/* author */ (''),
/* organization */ (''),
/* preprocessor_version */ 'ST-DEVELOPER v16',
/* originating_system */ 'SIEMENS PLM Software NX 10.0',
/* authorisation */ '');

FILE_SCHEMA (('AUTOMOTIVE_DESIGN { 1 0 10303 214 3 1 1 1 }'));
ENDSEC;

DATA;
#10=SHAPE_REPRESENTATION_RELATIONSHIP('None',
'relationship between Sechskantmutter_M8x0_5_SW10-None and Sechskantmu
tter_M8x0_5_SW10-None',#22,#11);
#11=ADVANCED_BREP_SHAPE_REPRESENTATION(
'Sechskantmutter_M8x0_5_SW10-None',(#32),#457);
#12=SHAPE_DEFINITION_REPRESENTATION(#13,#22);
#13=PRODUCT_DEFINITION_SHAPE('','',#14);
#14=PRODUCT_DEFINITION(' ','',#16,#15);
#15=PRODUCT_DEFINITION_CONTEXT('part definition',#21,'design');
#16=PRODUCT_DEFINITION_FORMATION_WITH_SPECIFIED_SOURCE(' ',' ',#18,
 .NOT_KNOWN.);
#17=PRODUCT_RELATED_PRODUCT_CATEGORY('part','',(#18));
#18=PRODUCT('Sechskantmutter_M8x0_5_SW10','Sechskantmutter_M8x0_5_SW10',
' ',(#19));
#19=PRODUCT_CONTEXT(' ',#21,'mechanical');
#20=APPLICATION_PROTOCOL_DEFINITION('international standard',
'automotive_design',2010,#21);
#21=APPLICATION_CONTEXT(
'core data for automotive mechanical design processes');
#22=SHAPE_REPRESENTATION('Sechskantmutter_M8x0_5_SW10-None',(#260),#457);
#23=PRESENTATION_LAYER_ASSIGNMENT('1','Layer 1',(#32));
#24=STYLED_ITEM('',(#25),#32);
#25=PRESENTATION_STYLE_ASSIGNMENT((#26));
#26=SURFACE_STYLE_USAGE(.BOTH.,#27);
#27=SURFACE_SIDE_STYLE('',(#28));
#28=SURFACE_STYLE_FILL_AREA(#29);
#29=FILL_AREA_STYLE('',(#30));
#30=FILL_AREA_STYLE_COLOUR('',#31);
#31=COLOUR_RGB('Medium Gray',0.490196078431373,0.490196078431373,0.490196078431373);
#32=MANIFOLD_SOLID_BREP('',#33);
#33=CLOSED_SHELL('',(#73,#74,#75,#76,#77,#78,#79,#80,#81,#82,#83,#84,#85,
#86,#87));
#34=LINE('',#431,#46);
#35=LINE('',#434,#47);
#36=LINE('',#436,#48);
#37=LINE('',#438,#49);
#38=LINE('',#440,#50);
#39=LINE('',#442,#51);
#40=LINE('',#444,#52);
#41=LINE('',#445,#53);
#42=LINE('',#447,#54);
#43=LINE('',#449,#55);
#44=LINE('',#451,#56);
#45=LINE('',#453,#57);
#46=VECTOR('',#318,1.);
#47=VECTOR('',#319,1.);
#48=VECTOR('',#320,1.);
#49=VECTOR('',#321,1.);
#50=VECTOR('',#322,1.);
#51=VECTOR('',#323,1.);
#52=VECTOR('',#326,1.);
#53=VECTOR('',#327,1.);
#54=VECTOR('',#330,1.);
#55=VECTOR('',#333,1.);
#56=VECTOR('',#336,1.);
#57=VECTOR('',#339,1.);
#58=PLANE('',#276);
#59=PLANE('',#277);
#60=PLANE('',#278);
#61=PLANE('',#279);
#62=PLANE('',#280);
#63=PLANE('',#281);
#64=PLANE('',#282);
#65=PLANE('',#283);
#66=CYLINDRICAL_SURFACE('',#275,3.695);
#67=FACE_BOUND('',#112,.T.);
#68=FACE_BOUND('',#113,.T.);
#69=FACE_BOUND('',#114,.T.);
#70=FACE_BOUND('',#115,.T.);
#71=FACE_BOUND('',#116,.T.);
#72=FACE_BOUND('',#117,.T.);
#73=ADVANCED_FACE('',(#94),#88,.T.);
#74=ADVANCED_FACE('',(#95),#89,.T.);
#75=ADVANCED_FACE('',(#96),#90,.T.);
#76=ADVANCED_FACE('',(#97),#91,.T.);
#77=ADVANCED_FACE('',(#98),#92,.T.);
#78=ADVANCED_FACE('',(#99),#93,.T.);
#79=ADVANCED_FACE('',(#67,#68),#66,.F.);
#80=ADVANCED_FACE('',(#69,#70),#58,.F.);
#81=ADVANCED_FACE('',(#71,#72),#59,.F.);
#82=ADVANCED_FACE('',(#100),#60,.T.);
#83=ADVANCED_FACE('',(#101),#61,.T.);
#84=ADVANCED_FACE('',(#102),#62,.T.);
#85=ADVANCED_FACE('',(#103),#63,.T.);
#86=ADVANCED_FACE('',(#104),#64,.T.);
#87=ADVANCED_FACE('',(#105),#65,.T.);
#88=TOROIDAL_SURFACE('',#262,5.08041107237586,1.4063857422288);
#89=TOROIDAL_SURFACE('',#264,5.08041107237586,1.4063857422288);
#90=TOROIDAL_SURFACE('',#266,5.08041107237586,1.4063857422288);
#91=TOROIDAL_SURFACE('',#268,5.08041107237586,1.4063857422288);
#92=TOROIDAL_SURFACE('',#270,5.08041107237586,1.4063857422288);
#93=TOROIDAL_SURFACE('',#272,5.08041107237586,1.4063857422288);
#94=FACE_OUTER_BOUND('',#106,.T.);
#95=FACE_OUTER_BOUND('',#107,.T.);
#96=FACE_OUTER_BOUND('',#108,.T.);
#97=FACE_OUTER_BOUND('',#109,.T.);
#98=FACE_OUTER_BOUND('',#110,.T.);
#99=FACE_OUTER_BOUND('',#111,.T.);
#100=FACE_OUTER_BOUND('',#118,.T.);
#101=FACE_OUTER_BOUND('',#119,.T.);
#102=FACE_OUTER_BOUND('',#120,.T.);
#103=FACE_OUTER_BOUND('',#121,.T.);
#104=FACE_OUTER_BOUND('',#122,.T.);
#105=FACE_OUTER_BOUND('',#123,.T.);
#106=EDGE_LOOP('',(#132,#133,#134));
#107=EDGE_LOOP('',(#135,#136,#137));
#108=EDGE_LOOP('',(#138,#139,#140));
#109=EDGE_LOOP('',(#141,#142,#143));
#110=EDGE_LOOP('',(#144,#145,#146));
#111=EDGE_LOOP('',(#147,#148,#149));
#112=EDGE_LOOP('',(#150));
#113=EDGE_LOOP('',(#151));
#114=EDGE_LOOP('',(#152,#153,#154,#155,#156,#157));
#115=EDGE_LOOP('',(#158));
#116=EDGE_LOOP('',(#159,#160,#161,#162,#163,#164));
#117=EDGE_LOOP('',(#165));
#118=EDGE_LOOP('',(#166,#167,#168,#169,#170));
#119=EDGE_LOOP('',(#171,#172,#173,#174,#175));
#120=EDGE_LOOP('',(#176,#177,#178,#179,#180));
#121=EDGE_LOOP('',(#181,#182,#183,#184,#185));
#122=EDGE_LOOP('',(#186,#187,#188,#189,#190));
#123=EDGE_LOOP('',(#191,#192,#193,#194,#195));
#124=CIRCLE('',#261,5.00000000000559);
#125=CIRCLE('',#263,5.00000000000559);
#126=CIRCLE('',#265,5.00000000000559);
#127=CIRCLE('',#267,5.00000000000559);
#128=CIRCLE('',#269,5.00000000000559);
#129=CIRCLE('',#271,5.00000000000559);
#130=CIRCLE('',#273,3.695);
#131=CIRCLE('',#274,3.695);
#132=ORIENTED_EDGE('',*,*,#216,.F.);
#133=ORIENTED_EDGE('',*,*,#217,.T.);
#134=ORIENTED_EDGE('',*,*,#218,.F.);
#135=ORIENTED_EDGE('',*,*,#219,.F.);
#136=ORIENTED_EDGE('',*,*,#220,.T.);
#137=ORIENTED_EDGE('',*,*,#221,.F.);
#138=ORIENTED_EDGE('',*,*,#222,.F.);
#139=ORIENTED_EDGE('',*,*,#223,.F.);
#140=ORIENTED_EDGE('',*,*,#224,.T.);
#141=ORIENTED_EDGE('',*,*,#225,.F.);
#142=ORIENTED_EDGE('',*,*,#226,.T.);
#143=ORIENTED_EDGE('',*,*,#227,.F.);
#144=ORIENTED_EDGE('',*,*,#228,.F.);
#145=ORIENTED_EDGE('',*,*,#229,.T.);
#146=ORIENTED_EDGE('',*,*,#230,.F.);
#147=ORIENTED_EDGE('',*,*,#231,.F.);
#148=ORIENTED_EDGE('',*,*,#232,.T.);
#149=ORIENTED_EDGE('',*,*,#233,.F.);
#150=ORIENTED_EDGE('',*,*,#234,.F.);
#151=ORIENTED_EDGE('',*,*,#235,.T.);
#152=ORIENTED_EDGE('',*,*,#226,.F.);
#153=ORIENTED_EDGE('',*,*,#220,.F.);
#154=ORIENTED_EDGE('',*,*,#217,.F.);
#155=ORIENTED_EDGE('',*,*,#224,.F.);
#156=ORIENTED_EDGE('',*,*,#232,.F.);
#157=ORIENTED_EDGE('',*,*,#229,.F.);
#158=ORIENTED_EDGE('',*,*,#234,.T.);
#159=ORIENTED_EDGE('',*,*,#236,.T.);
#160=ORIENTED_EDGE('',*,*,#237,.T.);
#161=ORIENTED_EDGE('',*,*,#238,.T.);
#162=ORIENTED_EDGE('',*,*,#239,.T.);
#163=ORIENTED_EDGE('',*,*,#240,.T.);
#164=ORIENTED_EDGE('',*,*,#241,.T.);
#165=ORIENTED_EDGE('',*,*,#235,.F.);
#166=ORIENTED_EDGE('',*,*,#222,.T.);
#167=ORIENTED_EDGE('',*,*,#216,.T.);
#168=ORIENTED_EDGE('',*,*,#242,.F.);
#169=ORIENTED_EDGE('',*,*,#237,.F.);
#170=ORIENTED_EDGE('',*,*,#243,.T.);
#171=ORIENTED_EDGE('',*,*,#218,.T.);
#172=ORIENTED_EDGE('',*,*,#219,.T.);
#173=ORIENTED_EDGE('',*,*,#244,.F.);
#174=ORIENTED_EDGE('',*,*,#238,.F.);
#175=ORIENTED_EDGE('',*,*,#242,.T.);
#176=ORIENTED_EDGE('',*,*,#225,.T.);
#177=ORIENTED_EDGE('',*,*,#245,.F.);
#178=ORIENTED_EDGE('',*,*,#239,.F.);
#179=ORIENTED_EDGE('',*,*,#244,.T.);
#180=ORIENTED_EDGE('',*,*,#221,.T.);
#181=ORIENTED_EDGE('',*,*,#227,.T.);
#182=ORIENTED_EDGE('',*,*,#228,.T.);
#183=ORIENTED_EDGE('',*,*,#246,.F.);
#184=ORIENTED_EDGE('',*,*,#240,.F.);
#185=ORIENTED_EDGE('',*,*,#245,.T.);
#186=ORIENTED_EDGE('',*,*,#230,.T.);
#187=ORIENTED_EDGE('',*,*,#231,.T.);
#188=ORIENTED_EDGE('',*,*,#247,.F.);
#189=ORIENTED_EDGE('',*,*,#241,.F.);
#190=ORIENTED_EDGE('',*,*,#246,.T.);
#191=ORIENTED_EDGE('',*,*,#223,.T.);
#192=ORIENTED_EDGE('',*,*,#243,.F.);
#193=ORIENTED_EDGE('',*,*,#236,.F.);
#194=ORIENTED_EDGE('',*,*,#247,.T.);
#195=ORIENTED_EDGE('',*,*,#233,.T.);
#196=VERTEX_POINT('',#349);
#197=VERTEX_POINT('',#350);
#198=VERTEX_POINT('',#352);
#199=VERTEX_POINT('',#362);
#200=VERTEX_POINT('',#364);
#201=VERTEX_POINT('',#376);
#202=VERTEX_POINT('',#383);
#203=VERTEX_POINT('',#392);
#204=VERTEX_POINT('',#394);
#205=VERTEX_POINT('',#404);
#206=VERTEX_POINT('',#406);
#207=VERTEX_POINT('',#416);
#208=VERTEX_POINT('',#426);
#209=VERTEX_POINT('',#428);
#210=VERTEX_POINT('',#432);
#211=VERTEX_POINT('',#433);
#212=VERTEX_POINT('',#435);
#213=VERTEX_POINT('',#437);
#214=VERTEX_POINT('',#439);
#215=VERTEX_POINT('',#441);
#216=EDGE_CURVE('',#196,#197,#248,.T.);
#217=EDGE_CURVE('',#196,#198,#124,.T.);
#218=EDGE_CURVE('',#197,#198,#249,.T.);
#219=EDGE_CURVE('',#198,#199,#250,.T.);
#220=EDGE_CURVE('',#198,#200,#125,.T.);
#221=EDGE_CURVE('',#199,#200,#251,.T.);
#222=EDGE_CURVE('',#201,#196,#252,.T.);
#223=EDGE_CURVE('',#202,#201,#253,.T.);
#224=EDGE_CURVE('',#202,#196,#126,.T.);
#225=EDGE_CURVE('',#200,#203,#254,.T.);
#226=EDGE_CURVE('',#200,#204,#127,.T.);
#227=EDGE_CURVE('',#203,#204,#255,.T.);
#228=EDGE_CURVE('',#204,#205,#256,.T.);
#229=EDGE_CURVE('',#204,#206,#128,.T.);
#230=EDGE_CURVE('',#205,#206,#257,.T.);
#231=EDGE_CURVE('',#206,#207,#258,.T.);
#232=EDGE_CURVE('',#206,#202,#129,.T.);
#233=EDGE_CURVE('',#207,#202,#259,.T.);
#234=EDGE_CURVE('',#208,#208,#130,.T.);
#235=EDGE_CURVE('',#209,#209,#131,.T.);
#236=EDGE_CURVE('',#210,#211,#34,.T.);
#237=EDGE_CURVE('',#211,#212,#35,.T.);
#238=EDGE_CURVE('',#212,#213,#36,.T.);
#239=EDGE_CURVE('',#213,#214,#37,.T.);
#240=EDGE_CURVE('',#214,#215,#38,.T.);
#241=EDGE_CURVE('',#215,#210,#39,.T.);
#242=EDGE_CURVE('',#212,#197,#40,.T.);
#243=EDGE_CURVE('',#211,#201,#41,.T.);
#244=EDGE_CURVE('',#213,#199,#42,.T.);
#245=EDGE_CURVE('',#214,#203,#43,.T.);
#246=EDGE_CURVE('',#215,#205,#44,.T.);
#247=EDGE_CURVE('',#210,#207,#45,.T.);
#248=B_SPLINE_CURVE_WITH_KNOTS('',3,(#345,#346,#347,#348),.UNSPECIFIED.,
 .F.,.F.,(4,4),(0.,1.),.UNSPECIFIED.);
#249=B_SPLINE_CURVE_WITH_KNOTS('',3,(#353,#354,#355,#356),.UNSPECIFIED.,
 .F.,.F.,(4,4),(0.,1.),.UNSPECIFIED.);
#250=B_SPLINE_CURVE_WITH_KNOTS('',3,(#358,#359,#360,#361),.UNSPECIFIED.,
 .F.,.F.,(4,4),(0.,1.),.UNSPECIFIED.);
#251=B_SPLINE_CURVE_WITH_KNOTS('',3,(#365,#366,#367,#368,#369,#370),
 .UNSPECIFIED.,.F.,.F.,(4,2,4),(0.,0.5,1.),.UNSPECIFIED.);
#252=B_SPLINE_CURVE_WITH_KNOTS('',3,(#372,#373,#374,#375),.UNSPECIFIED.,
 .F.,.F.,(4,4),(0.,1.),.UNSPECIFIED.);
#253=B_SPLINE_CURVE_WITH_KNOTS('',3,(#377,#378,#379,#380,#381,#382),
 .UNSPECIFIED.,.F.,.F.,(4,2,4),(0.,0.5,1.),.UNSPECIFIED.);
#254=B_SPLINE_CURVE_WITH_KNOTS('',3,(#386,#387,#388,#389,#390,#391),
 .UNSPECIFIED.,.F.,.F.,(4,2,4),(0.,0.5,1.),.UNSPECIFIED.);
#255=B_SPLINE_CURVE_WITH_KNOTS('',3,(#395,#396,#397,#398),.UNSPECIFIED.,
 .F.,.F.,(4,4),(0.,1.),.UNSPECIFIED.);
#256=B_SPLINE_CURVE_WITH_KNOTS('',3,(#400,#401,#402,#403),.UNSPECIFIED.,
 .F.,.F.,(4,4),(0.,1.),.UNSPECIFIED.);
#257=B_SPLINE_CURVE_WITH_KNOTS('',3,(#407,#408,#409,#410),.UNSPECIFIED.,
 .F.,.F.,(4,4),(0.,1.),.UNSPECIFIED.);
#258=B_SPLINE_CURVE_WITH_KNOTS('',3,(#412,#413,#414,#415),.UNSPECIFIED.,
 .F.,.F.,(4,4),(0.,1.),.UNSPECIFIED.);
#259=B_SPLINE_CURVE_WITH_KNOTS('',3,(#418,#419,#420,#421,#422,#423),
 .UNSPECIFIED.,.F.,.F.,(4,2,4),(0.,0.5,1.),.UNSPECIFIED.);
#260=AXIS2_PLACEMENT_3D('',#344,#284,#285);
#261=AXIS2_PLACEMENT_3D('',#351,#286,#287);
#262=AXIS2_PLACEMENT_3D('',#357,#288,#289);
#263=AXIS2_PLACEMENT_3D('',#363,#290,#291);
#264=AXIS2_PLACEMENT_3D('',#371,#292,#293);
#265=AXIS2_PLACEMENT_3D('',#384,#294,#295);
#266=AXIS2_PLACEMENT_3D('',#385,#296,#297);
#267=AXIS2_PLACEMENT_3D('',#393,#298,#299);
#268=AXIS2_PLACEMENT_3D('',#399,#300,#301);
#269=AXIS2_PLACEMENT_3D('',#405,#302,#303);
#270=AXIS2_PLACEMENT_3D('',#411,#304,#305);
#271=AXIS2_PLACEMENT_3D('',#417,#306,#307);
#272=AXIS2_PLACEMENT_3D('',#424,#308,#309);
#273=AXIS2_PLACEMENT_3D('',#425,#310,#311);
#274=AXIS2_PLACEMENT_3D('',#427,#312,#313);
#275=AXIS2_PLACEMENT_3D('',#429,#314,#315);
#276=AXIS2_PLACEMENT_3D('',#430,#316,#317);
#277=AXIS2_PLACEMENT_3D('',#443,#324,#325);
#278=AXIS2_PLACEMENT_3D('',#446,#328,#329);
#279=AXIS2_PLACEMENT_3D('',#448,#331,#332);
#280=AXIS2_PLACEMENT_3D('',#450,#334,#335);
#281=AXIS2_PLACEMENT_3D('',#452,#337,#338);
#282=AXIS2_PLACEMENT_3D('',#454,#340,#341);
#283=AXIS2_PLACEMENT_3D('',#455,#342,#343);
#284=DIRECTION('',(0.,0.,1.));
#285=DIRECTION('',(1.,0.,0.));
#286=DIRECTION('',(0.,0.,-1.));
#287=DIRECTION('',(0.500000000000065,0.866025403784401,0.));
#288=DIRECTION('',(0.,0.,-1.));
#289=DIRECTION('',(0.500000000000065,0.866025403784401,0.));
#290=DIRECTION('',(0.,0.,-1.));
#291=DIRECTION('',(0.500000000000065,0.866025403784401,0.));
#292=DIRECTION('',(0.,0.,-1.));
#293=DIRECTION('',(0.500000000000065,0.866025403784401,0.));
#294=DIRECTION('',(0.,0.,-1.));
#295=DIRECTION('',(0.500000000000065,0.866025403784401,0.));
#296=DIRECTION('',(0.,0.,-1.));
#297=DIRECTION('',(0.500000000000065,0.866025403784401,0.));
#298=DIRECTION('',(0.,0.,-1.));
#299=DIRECTION('',(0.500000000000065,0.866025403784401,0.));
#300=DIRECTION('',(0.,0.,-1.));
#301=DIRECTION('',(0.500000000000065,0.866025403784401,0.));
#302=DIRECTION('',(0.,0.,-1.));
#303=DIRECTION('',(0.500000000000065,0.866025403784401,0.));
#304=DIRECTION('',(0.,0.,-1.));
#305=DIRECTION('',(0.500000000000065,0.866025403784401,0.));
#306=DIRECTION('',(0.,0.,-1.));
#307=DIRECTION('',(0.500000000000065,0.866025403784401,0.));
#308=DIRECTION('',(0.,0.,-1.));
#309=DIRECTION('',(0.500000000000065,0.866025403784401,0.));
#310=DIRECTION('',(0.,0.,-1.));
#311=DIRECTION('',(0.500000000000065,0.866025403784401,0.));
#312=DIRECTION('',(0.,0.,-1.));
#313=DIRECTION('',(0.500000000000065,0.866025403784401,0.));
#314=DIRECTION('',(0.,0.,-1.));
#315=DIRECTION('',(0.500000000000065,0.866025403784401,0.));
#316=DIRECTION('',(0.,0.,-1.));
#317=DIRECTION('',(0.500000000000065,0.866025403784401,0.));
#318=DIRECTION('',(-0.866025403784429,0.500000000000016,0.));
#319=DIRECTION('',(9.82547376793264E-14,1.,0.));
#320=DIRECTION('',(0.866025403784485,0.49999999999992,0.));
#321=DIRECTION('',(0.866025403784401,-0.500000000000065,0.));
#322=DIRECTION('',(-3.84137166520304E-14,-1.,0.));
#323=DIRECTION('',(-0.866025403784441,-0.499999999999996,0.));
#324=DIRECTION('',(0.,0.,1.));
#325=DIRECTION('',(-0.500000000000065,-0.866025403784401,0.));
#326=DIRECTION('',(0.,0.,1.));
#327=DIRECTION('',(0.,0.,1.));
#328=DIRECTION('',(-1.,9.81992265280951E-14,0.));
#329=DIRECTION('',(-9.81992265280951E-14,-1.,0.));
#330=DIRECTION('',(0.,0.,1.));
#331=DIRECTION('',(-0.49999999999992,0.866025403784485,0.));
#332=DIRECTION('',(-0.866025403784485,-0.49999999999992,0.));
#333=DIRECTION('',(0.,0.,1.));
#334=DIRECTION('',(0.500000000000065,0.866025403784401,0.));
#335=DIRECTION('',(-0.866025403784401,0.500000000000065,0.));
#336=DIRECTION('',(0.,0.,1.));
#337=DIRECTION('',(1.,-3.84137166520304E-14,0.));
#338=DIRECTION('',(3.84137166520304E-14,1.,0.));
#339=DIRECTION('',(0.,0.,1.));
#340=DIRECTION('',(0.499999999999996,-0.866025403784441,0.));
#341=DIRECTION('',(0.866025403784441,0.499999999999996,0.));
#342=DIRECTION('',(-0.500000000000016,-0.866025403784429,0.));
#343=DIRECTION('',(0.866025403784429,-0.500000000000016,0.));
#344=CARTESIAN_POINT('',(0.,0.,0.));
#345=CARTESIAN_POINT('',(-5.0000000137905,4.92236975050312E-13,2.00000000078946));
#346=CARTESIAN_POINT('',(-5.00000001379041,0.965439271665719,2.00000000078946));
#347=CARTESIAN_POINT('',(-5.00000001379031,1.9356001186107,2.08900913588674));
#348=CARTESIAN_POINT('',(-5.00000001379022,2.88675135037174,1.81965706613152));
#349=CARTESIAN_POINT('',(-5.0000000137905,4.92661467177413E-13,2.00000000078946));
#350=CARTESIAN_POINT('',(-5.00000001379021,2.88675135037204,1.81965706613722));
#351=CARTESIAN_POINT('',(0.,0.,2.00000000000002));
#352=CARTESIAN_POINT('',(-2.50000000536262,4.33012702821147,2.00000000061396));
#353=CARTESIAN_POINT('',(-5.00000001378983,2.88675135037226,1.81965706613156));
#354=CARTESIAN_POINT('',(-4.18063180854589,3.35981380423516,2.08758575517888));
#355=CARTESIAN_POINT('',(-3.33776506595522,3.84644314496077,2.00000000061396));
#356=CARTESIAN_POINT('',(-2.50000000536262,4.33012702821146,2.00000000061396));
#357=CARTESIAN_POINT('',(0.,0.,0.595914918751467));
#358=CARTESIAN_POINT('',(-2.50000000536262,4.33012702821146,2.00000000061396));
#359=CARTESIAN_POINT('',(-1.66390507458362,4.8128466615647,2.00000000061396));
#360=CARTESIAN_POINT('',(-0.823721139905375,5.29792708241988,2.08900913441477));
#361=CARTESIAN_POINT('',(-1.37901395995447E-8,5.77350269631959,1.81965707164296));
#362=CARTESIAN_POINT('',(-1.37901426389142E-8,5.77350269631959,1.81965707164296));
#363=CARTESIAN_POINT('',(0.,0.,2.00000000000002));
#364=CARTESIAN_POINT('',(2.49999998623669,4.33012702332978,1.99999999982719));
#365=CARTESIAN_POINT('',(-1.37901428008692E-8,5.77350269631959,1.81965707164295));
#366=CARTESIAN_POINT('',(0.401722277666015,5.54156822320787,1.95101794770884));
#367=CARTESIAN_POINT('',(0.825515101213469,5.29689132245207,1.98459349254745));
#368=CARTESIAN_POINT('',(1.66237369053023,4.8137307906363,2.00875091288331));
#369=CARTESIAN_POINT('',(2.08540355921122,4.56949438207804,1.99999999990463));
#370=CARTESIAN_POINT('',(2.49999998623669,4.33012702332978,1.99999999982719));
#371=CARTESIAN_POINT('',(0.,0.,0.595914918751467));
#372=CARTESIAN_POINT('',(-5.00000001379079,-2.88675134152417,1.81965706863674));
#373=CARTESIAN_POINT('',(-5.00000001379069,-1.94062643766025,2.08758575322358));
#374=CARTESIAN_POINT('',(-5.0000000137906,-0.967367761533773,2.00000000078946));
#375=CARTESIAN_POINT('',(-5.0000000137905,4.92236975050312E-13,2.00000000078946));
#376=CARTESIAN_POINT('',(-5.00000001379079,-2.88675134152444,1.81965706864025));
#377=CARTESIAN_POINT('',(-2.50000001376364,-4.33012701451424,2.00000000017819));
#378=CARTESIAN_POINT('',(-2.91818718112177,-4.08868654086837,2.00000000025631));
#379=CARTESIAN_POINT('',(-3.33680417358618,-3.84699790758168,2.00870844987532));
#380=CARTESIAN_POINT('',(-4.17199506207652,-3.36480022328704,1.98473129841267));
#381=CARTESIAN_POINT('',(-4.59127725917926,-3.12272753392334,1.95330705707236));
#382=CARTESIAN_POINT('',(-5.00000001378974,-2.88675134152504,1.81965706863701));
#383=CARTESIAN_POINT('',(-2.50000001376364,-4.33012701451424,2.00000000017819));
#384=CARTESIAN_POINT('',(0.,0.,2.00000000000002));
#385=CARTESIAN_POINT('',(0.,0.,0.595914918751467));
#386=CARTESIAN_POINT('',(2.49999998623669,4.33012702332978,1.99999999982719));
#387=CARTESIAN_POINT('',(2.91818715338529,4.08868654980485,1.99999999974907));
#388=CARTESIAN_POINT('',(3.33680414562952,3.84699791664526,2.00870844956606));
#389=CARTESIAN_POINT('',(4.17199503394689,3.36480023245041,1.98473130120817));
#390=CARTESIAN_POINT('',(4.59127723094001,3.12272754314997,1.95330706249345));
#391=CARTESIAN_POINT('',(4.99999998620774,2.88675135037219,1.81965707966036));
#392=CARTESIAN_POINT('',(4.99999998620943,2.88675135037121,1.81965707966561));
#393=CARTESIAN_POINT('',(0.,0.,2.00000000000002));
#394=CARTESIAN_POINT('',(4.99999998620932,-1.94289029309402E-13,1.9999999992099));
#395=CARTESIAN_POINT('',(4.99999998620943,2.88675135037077,1.81965707965993));
#396=CARTESIAN_POINT('',(4.99999998620939,1.94062644184619,2.08758575735365));
#397=CARTESIAN_POINT('',(4.99999998620936,0.967367763925344,1.9999999992099));
#398=CARTESIAN_POINT('',(4.99999998620932,-1.94524631919783E-13,1.9999999992099));
#399=CARTESIAN_POINT('',(0.,0.,0.595914918751467));
#400=CARTESIAN_POINT('',(4.99999998620932,-1.94524631919783E-13,1.9999999992099));
#401=CARTESIAN_POINT('',(4.99999998620928,-0.965439268162294,1.9999999992099));
#402=CARTESIAN_POINT('',(4.99999998620925,-1.93560011140982,2.08900913741859));
#403=CARTESIAN_POINT('',(4.99999998620921,-2.88675134152451,1.81965708216517));
#404=CARTESIAN_POINT('',(4.99999998620921,-2.88675134152482,1.8196570821709));
#405=CARTESIAN_POINT('',(0.,0.,2.00000000000002));
#406=CARTESIAN_POINT('',(2.49999999463693,-4.33012700963312,1.99999999938541));
#407=CARTESIAN_POINT('',(4.99999998620883,-2.88675134152504,1.81965708216521));
#408=CARTESIAN_POINT('',(4.18063178361808,-3.35981379385622,2.08758575539827));
#409=CARTESIAN_POINT('',(3.33776504869664,-3.84644313015409,1.99999999938541));
#410=CARTESIAN_POINT('',(2.49999999463693,-4.33012700963312,1.99999999938541));
#411=CARTESIAN_POINT('',(0.,0.,0.595914918751467));
#412=CARTESIAN_POINT('',(2.49999999463693,-4.33012700963312,1.99999999938541));
#413=CARTESIAN_POINT('',(1.66390505830306,-4.81284664619356,1.99999999938541));
#414=CARTESIAN_POINT('',(0.823721117760414,-5.29792707043465,2.08900913889061));
#415=CARTESIAN_POINT('',(-1.37905986370194E-8,-5.7735026874728,1.81965707665352));
#416=CARTESIAN_POINT('',(-1.37906006059119E-8,-5.7735026874728,1.81965707665352));
#417=CARTESIAN_POINT('',(0.,0.,2.00000000000002));
#418=CARTESIAN_POINT('',(-1.37906007750388E-8,-5.7735026874728,1.81965707665352));
#419=CARTESIAN_POINT('',(-0.401722305842621,-5.54156821401708,1.95101794961275));
#420=CARTESIAN_POINT('',(-0.825515129395723,-5.29689131325806,1.98459349318673));
#421=CARTESIAN_POINT('',(-1.66237371838524,-4.81373078163129,2.00875091262832));
#422=CARTESIAN_POINT('',(-2.08540358694647,-4.5694943731422,2.00000000010075));
#423=CARTESIAN_POINT('',(-2.50000001376364,-4.33012701451424,2.00000000017819));
#424=CARTESIAN_POINT('',(0.,0.,0.595914918751467));
#425=CARTESIAN_POINT('',(0.,0.,2.00000000000002));
#426=CARTESIAN_POINT('',(1.84750000000024,3.19996386698337,2.00000000000002));
#427=CARTESIAN_POINT('',(0.,0.,0.));
#428=CARTESIAN_POINT('',(1.84750000000024,3.19996386698337,0.));
#429=CARTESIAN_POINT('',(0.,0.,0.));
#430=CARTESIAN_POINT('',(3.19996386698337,-1.84750000000024,2.00000000000002));
#431=CARTESIAN_POINT('',(-1.37906006059119E-8,-5.7735026874728,0.));
#432=CARTESIAN_POINT('',(-1.37906006059119E-8,-5.7735026874728,0.));
#433=CARTESIAN_POINT('',(-5.00000001379079,-2.88675134152444,0.));
#434=CARTESIAN_POINT('',(-5.00000001379079,-2.88675134152444,0.));
#435=CARTESIAN_POINT('',(-5.00000001379021,2.88675135037204,0.));
#436=CARTESIAN_POINT('',(-5.00000001379021,2.88675135037204,0.));
#437=CARTESIAN_POINT('',(-1.37901426389142E-8,5.77350269631959,0.));
#438=CARTESIAN_POINT('',(-1.37901426389142E-8,5.77350269631959,0.));
#439=CARTESIAN_POINT('',(4.99999998620943,2.88675135037121,0.));
#440=CARTESIAN_POINT('',(4.99999998620943,2.88675135037121,0.));
#441=CARTESIAN_POINT('',(4.99999998620921,-2.88675134152482,0.));
#442=CARTESIAN_POINT('',(4.99999998620921,-2.88675134152482,0.));
#443=CARTESIAN_POINT('',(5.19615242270641,-3.00000000000039,0.));
#444=CARTESIAN_POINT('',(-5.00000001379021,2.88675135037204,3.));
#445=CARTESIAN_POINT('',(-5.00000001379079,-2.88675134152444,3.));
#446=CARTESIAN_POINT('',(-5.00000001379079,-2.88675134152444,3.));
#447=CARTESIAN_POINT('',(-1.37901426389142E-8,5.77350269631959,3.));
#448=CARTESIAN_POINT('',(-5.00000001379021,2.88675135037204,3.));
#449=CARTESIAN_POINT('',(4.99999998620943,2.88675135037121,3.));
#450=CARTESIAN_POINT('',(-1.37901426389142E-8,5.77350269631959,3.));
#451=CARTESIAN_POINT('',(4.99999998620921,-2.88675134152482,3.));
#452=CARTESIAN_POINT('',(4.99999998620943,2.88675135037121,3.));
#453=CARTESIAN_POINT('',(-1.37906006059119E-8,-5.7735026874728,3.));
#454=CARTESIAN_POINT('',(4.99999998620921,-2.88675134152482,3.));
#455=CARTESIAN_POINT('',(-1.37906006059119E-8,-5.7735026874728,3.));
#456=MECHANICAL_DESIGN_GEOMETRIC_PRESENTATION_REPRESENTATION('',(#24),#457);
#457=(
GEOMETRIC_REPRESENTATION_CONTEXT(3)
GLOBAL_UNCERTAINTY_ASSIGNED_CONTEXT((#458))
GLOBAL_UNIT_ASSIGNED_CONTEXT((#464,#460,#459))
REPRESENTATION_CONTEXT('Sechskantmutter_M8x0_5_SW10',
'TOP_LEVEL_ASSEMBLY_PART')
);
#458=UNCERTAINTY_MEASURE_WITH_UNIT(LENGTH_MEASURE(0.0508),#464,
'DISTANCE_ACCURACY_VALUE','Maximum Tolerance applied to model');
#459=(
NAMED_UNIT(*)
SI_UNIT($,.STERADIAN.)
SOLID_ANGLE_UNIT()
);
#460=(
CONVERSION_BASED_UNIT('DEGREE',#462)
NAMED_UNIT(#461)
PLANE_ANGLE_UNIT()
);
#461=DIMENSIONAL_EXPONENTS(0.,0.,0.,0.,0.,0.,0.);
#462=PLANE_ANGLE_MEASURE_WITH_UNIT(PLANE_ANGLE_MEASURE(0.0174532925),#463);
#463=(
NAMED_UNIT(*)
PLANE_ANGLE_UNIT()
SI_UNIT($,.RADIAN.)
);
#464=(
LENGTH_UNIT()
NAMED_UNIT(*)
SI_UNIT(.MILLI.,.METRE.)
);
ENDSEC;
END-ISO-10303-21;
