ISO-10303-21;
HEADER;
/* Generated by software containing ST-Developer
 * from STEP Tools, Inc. (www.steptools.com) 
 */
/* OPTION: using custom schema-name function */

FILE_DESCRIPTION(
/* description */ (''),
/* implementation_level */ '2;1');

FILE_NAME(
/* name */ 'ohneDaten_Sechskantmutter_M20x1_5_SW24_stp.stp',
/* time_stamp */ '2018-09-04T16:06:04+02:00',
/* author */ (''),
/* organization */ (''),
/* preprocessor_version */ 'ST-DEVELOPER v16',
/* originating_system */ 'SIEMENS PLM Software NX 10.0',
/* authorisation */ '');

FILE_SCHEMA (('AUTOMOTIVE_DESIGN { 1 0 10303 214 3 1 1 1 }'));
ENDSEC;

DATA;
#10=SHAPE_REPRESENTATION_RELATIONSHIP('None',
'relationship between ohneDaten_Sechskantmutter_M20x1_5_SW24_stp-None 
and ohneDaten_Sechskantmutter_M20x1_5_SW24_stp-None',#22,#11);
#11=ADVANCED_BREP_SHAPE_REPRESENTATION(
'ohneDaten_Sechskantmutter_M20x1_5_SW24_stp-None',(#32),#659);
#12=SHAPE_DEFINITION_REPRESENTATION(#13,#22);
#13=PRODUCT_DEFINITION_SHAPE('','',#14);
#14=PRODUCT_DEFINITION(' ','',#16,#15);
#15=PRODUCT_DEFINITION_CONTEXT('part definition',#21,'design');
#16=PRODUCT_DEFINITION_FORMATION_WITH_SPECIFIED_SOURCE(' ',' ',#18,
 .NOT_KNOWN.);
#17=PRODUCT_RELATED_PRODUCT_CATEGORY('part','',(#18));
#18=PRODUCT('ohneDaten_Sechskantmutter_M20x1_5_SW24_stp',
'ohneDaten_Sechskantmutter_M20x1_5_SW24_stp',' ',(#19));
#19=PRODUCT_CONTEXT(' ',#21,'mechanical');
#20=APPLICATION_PROTOCOL_DEFINITION('international standard',
'automotive_design',2010,#21);
#21=APPLICATION_CONTEXT(
'core data for automotive mechanical design processes');
#22=SHAPE_REPRESENTATION(
'ohneDaten_Sechskantmutter_M20x1_5_SW24_stp-None',(#374),#659);
#23=PRESENTATION_LAYER_ASSIGNMENT('1','Layer 1',(#32));
#24=STYLED_ITEM('',(#25),#32);
#25=PRESENTATION_STYLE_ASSIGNMENT((#26));
#26=SURFACE_STYLE_USAGE(.BOTH.,#27);
#27=SURFACE_SIDE_STYLE('',(#28));
#28=SURFACE_STYLE_FILL_AREA(#29);
#29=FILL_AREA_STYLE('',(#30));
#30=FILL_AREA_STYLE_COLOUR('',#31);
#31=COLOUR_RGB('Medium Gray',0.490196078431373,0.490196078431373,0.490196078431373);
#32=MANIFOLD_SOLID_BREP('',#33);
#33=CLOSED_SHELL('',(#113,#114,#115,#116,#117,#118,#119,#120,#121,#122,
#123,#124,#125,#126,#127,#128,#129,#130,#131,#132,#133));
#34=CONICAL_SURFACE('',#410,13.,63.434948822922);
#35=CONICAL_SURFACE('',#411,13.,63.434948822922);
#36=CONICAL_SURFACE('',#412,13.,63.434948822922);
#37=CONICAL_SURFACE('',#413,13.,63.434948822922);
#38=CONICAL_SURFACE('',#414,13.,63.434948822922);
#39=CONICAL_SURFACE('',#415,12.,63.434948822922);
#40=CYLINDRICAL_SURFACE('',#386,13.);
#41=CYLINDRICAL_SURFACE('',#390,13.);
#42=CYLINDRICAL_SURFACE('',#394,13.);
#43=CYLINDRICAL_SURFACE('',#398,13.);
#44=CYLINDRICAL_SURFACE('',#402,13.);
#45=CYLINDRICAL_SURFACE('',#406,13.);
#46=CYLINDRICAL_SURFACE('',#409,9.19);
#47=FACE_OUTER_BOUND('',#150,.T.);
#48=FACE_OUTER_BOUND('',#151,.T.);
#49=FACE_OUTER_BOUND('',#152,.T.);
#50=FACE_OUTER_BOUND('',#153,.T.);
#51=FACE_OUTER_BOUND('',#154,.T.);
#52=FACE_OUTER_BOUND('',#155,.T.);
#53=FACE_OUTER_BOUND('',#156,.T.);
#54=FACE_OUTER_BOUND('',#157,.T.);
#55=FACE_OUTER_BOUND('',#158,.T.);
#56=FACE_OUTER_BOUND('',#159,.T.);
#57=FACE_OUTER_BOUND('',#160,.T.);
#58=FACE_OUTER_BOUND('',#161,.T.);
#59=FACE_OUTER_BOUND('',#166,.T.);
#60=FACE_OUTER_BOUND('',#167,.T.);
#61=FACE_OUTER_BOUND('',#168,.T.);
#62=FACE_OUTER_BOUND('',#169,.T.);
#63=FACE_OUTER_BOUND('',#170,.T.);
#64=FACE_OUTER_BOUND('',#171,.T.);
#65=LINE('',#544,#83);
#66=LINE('',#546,#84);
#67=LINE('',#548,#85);
#68=LINE('',#550,#86);
#69=LINE('',#565,#87);
#70=LINE('',#567,#88);
#71=LINE('',#569,#89);
#72=LINE('',#584,#90);
#73=LINE('',#586,#91);
#74=LINE('',#588,#92);
#75=LINE('',#603,#93);
#76=LINE('',#605,#94);
#77=LINE('',#607,#95);
#78=LINE('',#622,#96);
#79=LINE('',#624,#97);
#80=LINE('',#626,#98);
#81=LINE('',#632,#99);
#82=LINE('',#643,#100);
#83=VECTOR('',#434,1.);
#84=VECTOR('',#435,1.);
#85=VECTOR('',#436,1.);
#86=VECTOR('',#439,1.);
#87=VECTOR('',#446,1.);
#88=VECTOR('',#447,1.);
#89=VECTOR('',#450,1.);
#90=VECTOR('',#457,1.);
#91=VECTOR('',#458,1.);
#92=VECTOR('',#461,1.);
#93=VECTOR('',#468,1.);
#94=VECTOR('',#469,1.);
#95=VECTOR('',#472,1.);
#96=VECTOR('',#479,1.);
#97=VECTOR('',#480,1.);
#98=VECTOR('',#483,1.);
#99=VECTOR('',#490,1.);
#100=VECTOR('',#491,1.);
#101=B_SPLINE_CURVE_WITH_KNOTS('',3,(#534,#535,#536,#537),.UNSPECIFIED.,
 .F.,.F.,(4,4),(0.,1.),.UNSPECIFIED.);
#102=B_SPLINE_CURVE_WITH_KNOTS('',3,(#539,#540,#541,#542),.UNSPECIFIED.,
 .F.,.F.,(4,4),(0.,1.),.UNSPECIFIED.);
#103=B_SPLINE_CURVE_WITH_KNOTS('',3,(#556,#557,#558,#559),.UNSPECIFIED.,
 .F.,.F.,(4,4),(0.,1.),.UNSPECIFIED.);
#104=B_SPLINE_CURVE_WITH_KNOTS('',3,(#561,#562,#563,#564),.UNSPECIFIED.,
 .F.,.F.,(4,4),(0.,1.),.UNSPECIFIED.);
#105=B_SPLINE_CURVE_WITH_KNOTS('',3,(#575,#576,#577,#578),.UNSPECIFIED.,
 .F.,.F.,(4,4),(0.,1.),.UNSPECIFIED.);
#106=B_SPLINE_CURVE_WITH_KNOTS('',3,(#580,#581,#582,#583),.UNSPECIFIED.,
 .F.,.F.,(4,4),(0.,1.),.UNSPECIFIED.);
#107=B_SPLINE_CURVE_WITH_KNOTS('',3,(#594,#595,#596,#597),.UNSPECIFIED.,
 .F.,.F.,(4,4),(0.,1.),.UNSPECIFIED.);
#108=B_SPLINE_CURVE_WITH_KNOTS('',3,(#599,#600,#601,#602),.UNSPECIFIED.,
 .F.,.F.,(4,4),(0.,1.),.UNSPECIFIED.);
#109=B_SPLINE_CURVE_WITH_KNOTS('',3,(#613,#614,#615,#616),.UNSPECIFIED.,
 .F.,.F.,(4,4),(0.,1.),.UNSPECIFIED.);
#110=B_SPLINE_CURVE_WITH_KNOTS('',3,(#618,#619,#620,#621),.UNSPECIFIED.,
 .F.,.F.,(4,4),(0.,1.),.UNSPECIFIED.);
#111=B_SPLINE_CURVE_WITH_KNOTS('',3,(#635,#636,#637,#638),.UNSPECIFIED.,
 .F.,.F.,(4,4),(0.,1.),.UNSPECIFIED.);
#112=B_SPLINE_CURVE_WITH_KNOTS('',3,(#639,#640,#641,#642),.UNSPECIFIED.,
 .F.,.F.,(4,4),(0.,1.),.UNSPECIFIED.);
#113=ADVANCED_FACE('',(#142,#143),#134,.T.);
#114=ADVANCED_FACE('',(#47),#135,.F.);
#115=ADVANCED_FACE('',(#48),#40,.T.);
#116=ADVANCED_FACE('',(#49),#136,.F.);
#117=ADVANCED_FACE('',(#50),#41,.T.);
#118=ADVANCED_FACE('',(#51),#137,.F.);
#119=ADVANCED_FACE('',(#52),#42,.T.);
#120=ADVANCED_FACE('',(#53),#138,.F.);
#121=ADVANCED_FACE('',(#54),#43,.T.);
#122=ADVANCED_FACE('',(#55),#139,.F.);
#123=ADVANCED_FACE('',(#56),#44,.T.);
#124=ADVANCED_FACE('',(#57),#140,.F.);
#125=ADVANCED_FACE('',(#58),#45,.T.);
#126=ADVANCED_FACE('',(#144,#145),#141,.F.);
#127=ADVANCED_FACE('',(#146,#147),#46,.F.);
#128=ADVANCED_FACE('',(#59),#34,.T.);
#129=ADVANCED_FACE('',(#60),#35,.T.);
#130=ADVANCED_FACE('',(#61),#36,.T.);
#131=ADVANCED_FACE('',(#62),#37,.T.);
#132=ADVANCED_FACE('',(#63),#38,.T.);
#133=ADVANCED_FACE('',(#64),#39,.T.);
#134=PLANE('',#382);
#135=PLANE('',#383);
#136=PLANE('',#387);
#137=PLANE('',#391);
#138=PLANE('',#395);
#139=PLANE('',#399);
#140=PLANE('',#403);
#141=PLANE('',#408);
#142=FACE_BOUND('',#148,.T.);
#143=FACE_BOUND('',#149,.T.);
#144=FACE_BOUND('',#162,.T.);
#145=FACE_BOUND('',#163,.T.);
#146=FACE_BOUND('',#164,.T.);
#147=FACE_BOUND('',#165,.T.);
#148=EDGE_LOOP('',(#172,#173,#174,#175,#176,#177));
#149=EDGE_LOOP('',(#178));
#150=EDGE_LOOP('',(#179,#180,#181,#182,#183));
#151=EDGE_LOOP('',(#184,#185,#186,#187));
#152=EDGE_LOOP('',(#188,#189,#190,#191,#192));
#153=EDGE_LOOP('',(#193,#194,#195,#196));
#154=EDGE_LOOP('',(#197,#198,#199,#200,#201));
#155=EDGE_LOOP('',(#202,#203,#204,#205));
#156=EDGE_LOOP('',(#206,#207,#208,#209,#210));
#157=EDGE_LOOP('',(#211,#212,#213,#214));
#158=EDGE_LOOP('',(#215,#216,#217,#218,#219));
#159=EDGE_LOOP('',(#220,#221,#222,#223));
#160=EDGE_LOOP('',(#224,#225,#226,#227,#228));
#161=EDGE_LOOP('',(#229,#230,#231,#232));
#162=EDGE_LOOP('',(#233));
#163=EDGE_LOOP('',(#234,#235,#236,#237,#238,#239,#240,#241,#242,#243,#244,
#245));
#164=EDGE_LOOP('',(#246));
#165=EDGE_LOOP('',(#247));
#166=EDGE_LOOP('',(#248,#249,#250,#251));
#167=EDGE_LOOP('',(#252,#253,#254,#255));
#168=EDGE_LOOP('',(#256,#257,#258,#259));
#169=EDGE_LOOP('',(#260,#261,#262,#263));
#170=EDGE_LOOP('',(#264,#265,#266,#267));
#171=EDGE_LOOP('',(#268,#269,#270,#271));
#172=ORIENTED_EDGE('',*,*,#304,.T.);
#173=ORIENTED_EDGE('',*,*,#305,.T.);
#174=ORIENTED_EDGE('',*,*,#306,.T.);
#175=ORIENTED_EDGE('',*,*,#307,.T.);
#176=ORIENTED_EDGE('',*,*,#308,.T.);
#177=ORIENTED_EDGE('',*,*,#309,.T.);
#178=ORIENTED_EDGE('',*,*,#310,.F.);
#179=ORIENTED_EDGE('',*,*,#311,.T.);
#180=ORIENTED_EDGE('',*,*,#312,.T.);
#181=ORIENTED_EDGE('',*,*,#313,.T.);
#182=ORIENTED_EDGE('',*,*,#314,.T.);
#183=ORIENTED_EDGE('',*,*,#315,.F.);
#184=ORIENTED_EDGE('',*,*,#316,.F.);
#185=ORIENTED_EDGE('',*,*,#317,.T.);
#186=ORIENTED_EDGE('',*,*,#315,.T.);
#187=ORIENTED_EDGE('',*,*,#318,.T.);
#188=ORIENTED_EDGE('',*,*,#319,.T.);
#189=ORIENTED_EDGE('',*,*,#320,.T.);
#190=ORIENTED_EDGE('',*,*,#316,.T.);
#191=ORIENTED_EDGE('',*,*,#321,.T.);
#192=ORIENTED_EDGE('',*,*,#322,.F.);
#193=ORIENTED_EDGE('',*,*,#323,.F.);
#194=ORIENTED_EDGE('',*,*,#324,.T.);
#195=ORIENTED_EDGE('',*,*,#322,.T.);
#196=ORIENTED_EDGE('',*,*,#325,.T.);
#197=ORIENTED_EDGE('',*,*,#326,.T.);
#198=ORIENTED_EDGE('',*,*,#327,.T.);
#199=ORIENTED_EDGE('',*,*,#323,.T.);
#200=ORIENTED_EDGE('',*,*,#328,.T.);
#201=ORIENTED_EDGE('',*,*,#329,.F.);
#202=ORIENTED_EDGE('',*,*,#330,.F.);
#203=ORIENTED_EDGE('',*,*,#331,.T.);
#204=ORIENTED_EDGE('',*,*,#329,.T.);
#205=ORIENTED_EDGE('',*,*,#332,.T.);
#206=ORIENTED_EDGE('',*,*,#333,.T.);
#207=ORIENTED_EDGE('',*,*,#334,.T.);
#208=ORIENTED_EDGE('',*,*,#330,.T.);
#209=ORIENTED_EDGE('',*,*,#335,.T.);
#210=ORIENTED_EDGE('',*,*,#336,.F.);
#211=ORIENTED_EDGE('',*,*,#337,.F.);
#212=ORIENTED_EDGE('',*,*,#338,.T.);
#213=ORIENTED_EDGE('',*,*,#336,.T.);
#214=ORIENTED_EDGE('',*,*,#339,.T.);
#215=ORIENTED_EDGE('',*,*,#340,.T.);
#216=ORIENTED_EDGE('',*,*,#341,.T.);
#217=ORIENTED_EDGE('',*,*,#337,.T.);
#218=ORIENTED_EDGE('',*,*,#342,.T.);
#219=ORIENTED_EDGE('',*,*,#343,.F.);
#220=ORIENTED_EDGE('',*,*,#344,.F.);
#221=ORIENTED_EDGE('',*,*,#345,.T.);
#222=ORIENTED_EDGE('',*,*,#343,.T.);
#223=ORIENTED_EDGE('',*,*,#346,.T.);
#224=ORIENTED_EDGE('',*,*,#347,.F.);
#225=ORIENTED_EDGE('',*,*,#348,.T.);
#226=ORIENTED_EDGE('',*,*,#349,.T.);
#227=ORIENTED_EDGE('',*,*,#344,.T.);
#228=ORIENTED_EDGE('',*,*,#350,.T.);
#229=ORIENTED_EDGE('',*,*,#313,.F.);
#230=ORIENTED_EDGE('',*,*,#351,.T.);
#231=ORIENTED_EDGE('',*,*,#347,.T.);
#232=ORIENTED_EDGE('',*,*,#352,.T.);
#233=ORIENTED_EDGE('',*,*,#353,.T.);
#234=ORIENTED_EDGE('',*,*,#314,.F.);
#235=ORIENTED_EDGE('',*,*,#352,.F.);
#236=ORIENTED_EDGE('',*,*,#350,.F.);
#237=ORIENTED_EDGE('',*,*,#346,.F.);
#238=ORIENTED_EDGE('',*,*,#342,.F.);
#239=ORIENTED_EDGE('',*,*,#339,.F.);
#240=ORIENTED_EDGE('',*,*,#335,.F.);
#241=ORIENTED_EDGE('',*,*,#332,.F.);
#242=ORIENTED_EDGE('',*,*,#328,.F.);
#243=ORIENTED_EDGE('',*,*,#325,.F.);
#244=ORIENTED_EDGE('',*,*,#321,.F.);
#245=ORIENTED_EDGE('',*,*,#318,.F.);
#246=ORIENTED_EDGE('',*,*,#310,.T.);
#247=ORIENTED_EDGE('',*,*,#353,.F.);
#248=ORIENTED_EDGE('',*,*,#320,.F.);
#249=ORIENTED_EDGE('',*,*,#306,.F.);
#250=ORIENTED_EDGE('',*,*,#311,.F.);
#251=ORIENTED_EDGE('',*,*,#317,.F.);
#252=ORIENTED_EDGE('',*,*,#327,.F.);
#253=ORIENTED_EDGE('',*,*,#307,.F.);
#254=ORIENTED_EDGE('',*,*,#319,.F.);
#255=ORIENTED_EDGE('',*,*,#324,.F.);
#256=ORIENTED_EDGE('',*,*,#334,.F.);
#257=ORIENTED_EDGE('',*,*,#308,.F.);
#258=ORIENTED_EDGE('',*,*,#326,.F.);
#259=ORIENTED_EDGE('',*,*,#331,.F.);
#260=ORIENTED_EDGE('',*,*,#341,.F.);
#261=ORIENTED_EDGE('',*,*,#309,.F.);
#262=ORIENTED_EDGE('',*,*,#333,.F.);
#263=ORIENTED_EDGE('',*,*,#338,.F.);
#264=ORIENTED_EDGE('',*,*,#349,.F.);
#265=ORIENTED_EDGE('',*,*,#304,.F.);
#266=ORIENTED_EDGE('',*,*,#340,.F.);
#267=ORIENTED_EDGE('',*,*,#345,.F.);
#268=ORIENTED_EDGE('',*,*,#348,.F.);
#269=ORIENTED_EDGE('',*,*,#351,.F.);
#270=ORIENTED_EDGE('',*,*,#312,.F.);
#271=ORIENTED_EDGE('',*,*,#305,.F.);
#272=VERTEX_POINT('',#520);
#273=VERTEX_POINT('',#521);
#274=VERTEX_POINT('',#523);
#275=VERTEX_POINT('',#525);
#276=VERTEX_POINT('',#527);
#277=VERTEX_POINT('',#529);
#278=VERTEX_POINT('',#532);
#279=VERTEX_POINT('',#538);
#280=VERTEX_POINT('',#543);
#281=VERTEX_POINT('',#545);
#282=VERTEX_POINT('',#547);
#283=VERTEX_POINT('',#551);
#284=VERTEX_POINT('',#552);
#285=VERTEX_POINT('',#560);
#286=VERTEX_POINT('',#566);
#287=VERTEX_POINT('',#570);
#288=VERTEX_POINT('',#571);
#289=VERTEX_POINT('',#579);
#290=VERTEX_POINT('',#585);
#291=VERTEX_POINT('',#589);
#292=VERTEX_POINT('',#590);
#293=VERTEX_POINT('',#598);
#294=VERTEX_POINT('',#604);
#295=VERTEX_POINT('',#608);
#296=VERTEX_POINT('',#609);
#297=VERTEX_POINT('',#617);
#298=VERTEX_POINT('',#623);
#299=VERTEX_POINT('',#627);
#300=VERTEX_POINT('',#628);
#301=VERTEX_POINT('',#633);
#302=VERTEX_POINT('',#634);
#303=VERTEX_POINT('',#649);
#304=EDGE_CURVE('',#272,#273,#354,.T.);
#305=EDGE_CURVE('',#273,#274,#355,.T.);
#306=EDGE_CURVE('',#274,#275,#356,.T.);
#307=EDGE_CURVE('',#275,#276,#357,.T.);
#308=EDGE_CURVE('',#276,#277,#358,.T.);
#309=EDGE_CURVE('',#277,#272,#359,.T.);
#310=EDGE_CURVE('',#278,#278,#360,.T.);
#311=EDGE_CURVE('',#279,#274,#101,.T.);
#312=EDGE_CURVE('',#274,#280,#102,.T.);
#313=EDGE_CURVE('',#280,#281,#65,.T.);
#314=EDGE_CURVE('',#281,#282,#66,.T.);
#315=EDGE_CURVE('',#279,#282,#67,.T.);
#316=EDGE_CURVE('',#283,#284,#68,.T.);
#317=EDGE_CURVE('',#283,#279,#361,.T.);
#318=EDGE_CURVE('',#282,#284,#362,.T.);
#319=EDGE_CURVE('',#285,#275,#103,.T.);
#320=EDGE_CURVE('',#275,#283,#104,.T.);
#321=EDGE_CURVE('',#284,#286,#69,.T.);
#322=EDGE_CURVE('',#285,#286,#70,.T.);
#323=EDGE_CURVE('',#287,#288,#71,.T.);
#324=EDGE_CURVE('',#287,#285,#363,.T.);
#325=EDGE_CURVE('',#286,#288,#364,.T.);
#326=EDGE_CURVE('',#289,#276,#105,.T.);
#327=EDGE_CURVE('',#276,#287,#106,.T.);
#328=EDGE_CURVE('',#288,#290,#72,.T.);
#329=EDGE_CURVE('',#289,#290,#73,.T.);
#330=EDGE_CURVE('',#291,#292,#74,.T.);
#331=EDGE_CURVE('',#291,#289,#365,.T.);
#332=EDGE_CURVE('',#290,#292,#366,.T.);
#333=EDGE_CURVE('',#293,#277,#107,.T.);
#334=EDGE_CURVE('',#277,#291,#108,.T.);
#335=EDGE_CURVE('',#292,#294,#75,.T.);
#336=EDGE_CURVE('',#293,#294,#76,.T.);
#337=EDGE_CURVE('',#295,#296,#77,.T.);
#338=EDGE_CURVE('',#295,#293,#367,.T.);
#339=EDGE_CURVE('',#294,#296,#368,.T.);
#340=EDGE_CURVE('',#297,#272,#109,.T.);
#341=EDGE_CURVE('',#272,#295,#110,.T.);
#342=EDGE_CURVE('',#296,#298,#78,.T.);
#343=EDGE_CURVE('',#297,#298,#79,.T.);
#344=EDGE_CURVE('',#299,#300,#80,.T.);
#345=EDGE_CURVE('',#299,#297,#369,.T.);
#346=EDGE_CURVE('',#298,#300,#370,.T.);
#347=EDGE_CURVE('',#301,#302,#81,.T.);
#348=EDGE_CURVE('',#301,#273,#111,.T.);
#349=EDGE_CURVE('',#273,#299,#112,.T.);
#350=EDGE_CURVE('',#300,#302,#82,.T.);
#351=EDGE_CURVE('',#280,#301,#371,.T.);
#352=EDGE_CURVE('',#302,#281,#372,.T.);
#353=EDGE_CURVE('',#303,#303,#373,.T.);
#354=CIRCLE('',#375,12.);
#355=CIRCLE('',#376,12.);
#356=CIRCLE('',#377,12.);
#357=CIRCLE('',#378,12.);
#358=CIRCLE('',#379,12.);
#359=CIRCLE('',#380,12.);
#360=CIRCLE('',#381,9.19);
#361=CIRCLE('',#384,13.);
#362=CIRCLE('',#385,13.);
#363=CIRCLE('',#388,13.);
#364=CIRCLE('',#389,13.);
#365=CIRCLE('',#392,13.);
#366=CIRCLE('',#393,13.);
#367=CIRCLE('',#396,13.);
#368=CIRCLE('',#397,13.);
#369=CIRCLE('',#400,13.);
#370=CIRCLE('',#401,13.);
#371=CIRCLE('',#404,13.);
#372=CIRCLE('',#405,13.);
#373=CIRCLE('',#407,9.19);
#374=AXIS2_PLACEMENT_3D('',#518,#416,#417);
#375=AXIS2_PLACEMENT_3D('',#519,#418,#419);
#376=AXIS2_PLACEMENT_3D('',#522,#420,#421);
#377=AXIS2_PLACEMENT_3D('',#524,#422,#423);
#378=AXIS2_PLACEMENT_3D('',#526,#424,#425);
#379=AXIS2_PLACEMENT_3D('',#528,#426,#427);
#380=AXIS2_PLACEMENT_3D('',#530,#428,#429);
#381=AXIS2_PLACEMENT_3D('',#531,#430,#431);
#382=AXIS2_PLACEMENT_3D('',#533,#432,#433);
#383=AXIS2_PLACEMENT_3D('',#549,#437,#438);
#384=AXIS2_PLACEMENT_3D('',#553,#440,#441);
#385=AXIS2_PLACEMENT_3D('',#554,#442,#443);
#386=AXIS2_PLACEMENT_3D('',#555,#444,#445);
#387=AXIS2_PLACEMENT_3D('',#568,#448,#449);
#388=AXIS2_PLACEMENT_3D('',#572,#451,#452);
#389=AXIS2_PLACEMENT_3D('',#573,#453,#454);
#390=AXIS2_PLACEMENT_3D('',#574,#455,#456);
#391=AXIS2_PLACEMENT_3D('',#587,#459,#460);
#392=AXIS2_PLACEMENT_3D('',#591,#462,#463);
#393=AXIS2_PLACEMENT_3D('',#592,#464,#465);
#394=AXIS2_PLACEMENT_3D('',#593,#466,#467);
#395=AXIS2_PLACEMENT_3D('',#606,#470,#471);
#396=AXIS2_PLACEMENT_3D('',#610,#473,#474);
#397=AXIS2_PLACEMENT_3D('',#611,#475,#476);
#398=AXIS2_PLACEMENT_3D('',#612,#477,#478);
#399=AXIS2_PLACEMENT_3D('',#625,#481,#482);
#400=AXIS2_PLACEMENT_3D('',#629,#484,#485);
#401=AXIS2_PLACEMENT_3D('',#630,#486,#487);
#402=AXIS2_PLACEMENT_3D('',#631,#488,#489);
#403=AXIS2_PLACEMENT_3D('',#644,#492,#493);
#404=AXIS2_PLACEMENT_3D('',#645,#494,#495);
#405=AXIS2_PLACEMENT_3D('',#646,#496,#497);
#406=AXIS2_PLACEMENT_3D('',#647,#498,#499);
#407=AXIS2_PLACEMENT_3D('',#648,#500,#501);
#408=AXIS2_PLACEMENT_3D('',#650,#502,#503);
#409=AXIS2_PLACEMENT_3D('',#651,#504,#505);
#410=AXIS2_PLACEMENT_3D('',#652,#506,#507);
#411=AXIS2_PLACEMENT_3D('',#653,#508,#509);
#412=AXIS2_PLACEMENT_3D('',#654,#510,#511);
#413=AXIS2_PLACEMENT_3D('',#655,#512,#513);
#414=AXIS2_PLACEMENT_3D('',#656,#514,#515);
#415=AXIS2_PLACEMENT_3D('',#657,#516,#517);
#416=DIRECTION('',(0.,0.,1.));
#417=DIRECTION('',(1.,0.,0.));
#418=DIRECTION('',(0.,0.,1.));
#419=DIRECTION('',(1.,0.,0.));
#420=DIRECTION('',(0.,0.,1.));
#421=DIRECTION('',(1.,0.,0.));
#422=DIRECTION('',(0.,0.,1.));
#423=DIRECTION('',(1.,0.,0.));
#424=DIRECTION('',(0.,0.,1.));
#425=DIRECTION('',(1.,0.,0.));
#426=DIRECTION('',(0.,0.,1.));
#427=DIRECTION('',(1.,0.,0.));
#428=DIRECTION('',(0.,0.,1.));
#429=DIRECTION('',(1.,0.,0.));
#430=DIRECTION('',(0.,0.,1.));
#431=DIRECTION('',(1.,0.,0.));
#432=DIRECTION('',(0.,0.,1.));
#433=DIRECTION('',(1.,0.,0.));
#434=DIRECTION('',(0.,0.,-1.));
#435=DIRECTION('',(-0.866025403784437,0.500000000000003,0.));
#436=DIRECTION('',(0.,0.,-1.));
#437=DIRECTION('',(-0.500000000000003,-0.866025403784437,0.));
#438=DIRECTION('',(0.866025403784437,-0.500000000000003,0.));
#439=DIRECTION('',(0.,0.,-1.));
#440=DIRECTION('',(0.,0.,-1.));
#441=DIRECTION('',(1.,0.,0.));
#442=DIRECTION('',(0.,0.,1.));
#443=DIRECTION('',(1.,0.,0.));
#444=DIRECTION('',(0.,0.,-1.));
#445=DIRECTION('',(-1.,0.,0.));
#446=DIRECTION('',(-0.866025403784439,-0.499999999999999,0.));
#447=DIRECTION('',(0.,0.,-1.));
#448=DIRECTION('',(0.499999999999999,-0.866025403784439,0.));
#449=DIRECTION('',(0.866025403784439,0.499999999999999,0.));
#450=DIRECTION('',(0.,0.,-1.));
#451=DIRECTION('',(0.,0.,-1.));
#452=DIRECTION('',(1.,0.,0.));
#453=DIRECTION('',(0.,0.,1.));
#454=DIRECTION('',(1.,0.,0.));
#455=DIRECTION('',(0.,0.,-1.));
#456=DIRECTION('',(-1.,0.,0.));
#457=DIRECTION('',(4.84869951806103E-15,-1.,0.));
#458=DIRECTION('',(0.,0.,-1.));
#459=DIRECTION('',(1.,4.84869951806103E-15,0.));
#460=DIRECTION('',(-4.84855211535518E-15,1.,0.));
#461=DIRECTION('',(0.,0.,-1.));
#462=DIRECTION('',(0.,0.,-1.));
#463=DIRECTION('',(1.,0.,0.));
#464=DIRECTION('',(0.,0.,1.));
#465=DIRECTION('',(1.,0.,0.));
#466=DIRECTION('',(0.,0.,-1.));
#467=DIRECTION('',(-1.,0.,0.));
#468=DIRECTION('',(0.866025403784515,-0.499999999999868,0.));
#469=DIRECTION('',(0.,0.,-1.));
#470=DIRECTION('',(0.499999999999868,0.866025403784515,0.));
#471=DIRECTION('',(-0.866025403784515,0.499999999999868,0.));
#472=DIRECTION('',(0.,0.,-1.));
#473=DIRECTION('',(0.,0.,-1.));
#474=DIRECTION('',(1.,0.,0.));
#475=DIRECTION('',(0.,0.,1.));
#476=DIRECTION('',(1.,0.,0.));
#477=DIRECTION('',(0.,0.,-1.));
#478=DIRECTION('',(-1.,0.,0.));
#479=DIRECTION('',(0.866025403784441,0.499999999999996,0.));
#480=DIRECTION('',(0.,0.,-1.));
#481=DIRECTION('',(-0.499999999999996,0.866025403784441,0.));
#482=DIRECTION('',(-0.866025403784441,-0.499999999999996,0.));
#483=DIRECTION('',(0.,0.,-1.));
#484=DIRECTION('',(0.,0.,-1.));
#485=DIRECTION('',(1.,0.,0.));
#486=DIRECTION('',(0.,0.,1.));
#487=DIRECTION('',(1.,0.,0.));
#488=DIRECTION('',(0.,0.,-1.));
#489=DIRECTION('',(-1.,0.,0.));
#490=DIRECTION('',(0.,0.,-1.));
#491=DIRECTION('',(0.,1.,0.));
#492=DIRECTION('',(-1.,0.,0.));
#493=DIRECTION('',(0.,0.,1.));
#494=DIRECTION('',(0.,0.,-1.));
#495=DIRECTION('',(1.,0.,0.));
#496=DIRECTION('',(0.,0.,1.));
#497=DIRECTION('',(1.,0.,0.));
#498=DIRECTION('',(0.,0.,-1.));
#499=DIRECTION('',(-1.,0.,0.));
#500=DIRECTION('',(0.,0.,1.));
#501=DIRECTION('',(1.,0.,0.));
#502=DIRECTION('',(0.,0.,1.));
#503=DIRECTION('',(1.,0.,0.));
#504=DIRECTION('',(0.,0.,1.));
#505=DIRECTION('',(1.,0.,0.));
#506=DIRECTION('',(0.,0.,-1.));
#507=DIRECTION('',(-1.,0.,-2.64991291039676E-17));
#508=DIRECTION('',(0.,0.,-1.));
#509=DIRECTION('',(-1.,0.,-2.64991291039676E-17));
#510=DIRECTION('',(0.,0.,-1.));
#511=DIRECTION('',(-1.,0.,-2.64991291039676E-17));
#512=DIRECTION('',(0.,0.,-1.));
#513=DIRECTION('',(-1.,0.,-2.64991291039676E-17));
#514=DIRECTION('',(0.,0.,-1.));
#515=DIRECTION('',(-1.,0.,-2.64991291039676E-17));
#516=DIRECTION('',(0.,0.,-1.));
#517=DIRECTION('',(-1.,0.,1.29328290952545E-18));
#518=CARTESIAN_POINT('',(0.,0.,0.));
#519=CARTESIAN_POINT('',(0.,0.,3.));
#520=CARTESIAN_POINT('',(5.99999999999995,-10.3923048454133,3.));
#521=CARTESIAN_POINT('',(12.,0.,3.));
#522=CARTESIAN_POINT('',(0.,0.,3.));
#523=CARTESIAN_POINT('',(6.00000000000757,10.3923048454263,3.));
#524=CARTESIAN_POINT('',(0.,0.,3.));
#525=CARTESIAN_POINT('',(-5.99999999999999,10.3923048454133,3.));
#526=CARTESIAN_POINT('',(0.,0.,3.));
#527=CARTESIAN_POINT('',(-12.,-5.8113236445223E-14,3.));
#528=CARTESIAN_POINT('',(0.,0.,3.));
#529=CARTESIAN_POINT('',(-5.99999999999876,-10.3923048454148,3.));
#530=CARTESIAN_POINT('',(0.,0.,3.));
#531=CARTESIAN_POINT('',(0.,0.,3.));
#532=CARTESIAN_POINT('',(9.19,0.,3.));
#533=CARTESIAN_POINT('',(0.,0.,3.));
#534=CARTESIAN_POINT('',(1.66987298111669,12.8923048454082,2.5));
#535=CARTESIAN_POINT('',(3.10017657251426,12.0665186818919,2.81761006288858));
#536=CARTESIAN_POINT('',(4.54219057031556,11.2339715120861,2.99999999999257));
#537=CARTESIAN_POINT('',(6.00000000000882,10.3923048454256,2.99999999999247));
#538=CARTESIAN_POINT('',(1.66987298111669,12.8923048454082,2.5));
#539=CARTESIAN_POINT('',(6.00000000000004,10.3923048454132,3.));
#540=CARTESIAN_POINT('',(7.45780942969351,9.55063817875254,3.));
#541=CARTESIAN_POINT('',(8.89982342750108,8.71809100896052,2.81761006288854));
#542=CARTESIAN_POINT('',(10.3301270188984,7.89230484544435,2.5));
#543=CARTESIAN_POINT('',(10.3301270188984,7.89230484544435,2.5));
#544=CARTESIAN_POINT('',(10.3301270188984,7.89230484544435,4.25));
#545=CARTESIAN_POINT('',(10.3301270188984,7.89230484544435,0.));
#546=CARTESIAN_POINT('',(9.87298334618729,8.15623686794247,0.));
#547=CARTESIAN_POINT('',(1.66987298111669,12.8923048454082,0.));
#548=CARTESIAN_POINT('',(1.66987298111669,12.8923048454082,4.25));
#549=CARTESIAN_POINT('',(9.87298334618729,8.15623686794247,2.8));
#550=CARTESIAN_POINT('',(-1.6698729810778,12.8923048454133,4.25));
#551=CARTESIAN_POINT('',(-1.6698729810778,12.8923048454133,2.5));
#552=CARTESIAN_POINT('',(-1.66987298107779,12.8923048454133,0.));
#553=CARTESIAN_POINT('',(0.,0.,2.5));
#554=CARTESIAN_POINT('',(0.,0.,0.));
#555=CARTESIAN_POINT('',(0.,0.,2.8));
#556=CARTESIAN_POINT('',(-10.3301270189222,7.89230484541327,2.5));
#557=CARTESIAN_POINT('',(-8.89982342751468,8.71809100893529,2.81761006289308));
#558=CARTESIAN_POINT('',(-7.4578094297038,9.5506381787466,3.));
#559=CARTESIAN_POINT('',(-5.99999999999999,10.3923048454133,3.));
#560=CARTESIAN_POINT('',(-10.3301270189222,7.89230484541327,2.5));
#561=CARTESIAN_POINT('',(-5.99999999999999,10.3923048454133,3.));
#562=CARTESIAN_POINT('',(-4.54219057029618,11.2339715120799,3.));
#563=CARTESIAN_POINT('',(-3.1001765724853,12.0665186818913,2.81761006289308));
#564=CARTESIAN_POINT('',(-1.6698729810778,12.8923048454133,2.5));
#565=CARTESIAN_POINT('',(-2.12701665379256,12.6283728229131,0.));
#566=CARTESIAN_POINT('',(-10.3301270189222,7.89230484541327,0.));
#567=CARTESIAN_POINT('',(-10.3301270189222,7.89230484541327,4.25));
#568=CARTESIAN_POINT('',(-2.12701665379256,12.6283728229131,2.8));
#569=CARTESIAN_POINT('',(-12.,5.,4.25));
#570=CARTESIAN_POINT('',(-12.,5.,2.5));
#571=CARTESIAN_POINT('',(-12.,5.,0.));
#572=CARTESIAN_POINT('',(0.,0.,2.5));
#573=CARTESIAN_POINT('',(0.,0.,0.));
#574=CARTESIAN_POINT('',(0.,0.,2.8));
#575=CARTESIAN_POINT('',(-12.,-5.00000000000011,2.5));
#576=CARTESIAN_POINT('',(-12.,-3.34842767295607,2.81761006289309));
#577=CARTESIAN_POINT('',(-12.,-1.68333333333341,3.00000000000001));
#578=CARTESIAN_POINT('',(-12.,-6.11560648789508E-14,3.00000000000001));
#579=CARTESIAN_POINT('',(-12.,-5.00000000000011,2.5));
#580=CARTESIAN_POINT('',(-12.,-5.81132364452231E-14,3.));
#581=CARTESIAN_POINT('',(-12.,1.68333333333329,3.));
#582=CARTESIAN_POINT('',(-12.,3.34842767295595,2.81761006289309));
#583=CARTESIAN_POINT('',(-12.,5.,2.5));
#584=CARTESIAN_POINT('',(-12.,4.47213595499957,0.));
#585=CARTESIAN_POINT('',(-12.,-5.00000000000011,0.));
#586=CARTESIAN_POINT('',(-12.,-5.00000000000011,4.25));
#587=CARTESIAN_POINT('',(-12.,4.47213595499957,2.8));
#588=CARTESIAN_POINT('',(-10.3301270189199,-7.89230484541625,4.25));
#589=CARTESIAN_POINT('',(-10.3301270189199,-7.89230484541625,2.5));
#590=CARTESIAN_POINT('',(-10.3301270189199,-7.89230484541625,0.));
#591=CARTESIAN_POINT('',(0.,0.,2.5));
#592=CARTESIAN_POINT('',(0.,0.,0.));
#593=CARTESIAN_POINT('',(0.,0.,2.8));
#594=CARTESIAN_POINT('',(-1.66987298107761,-12.8923048454133,2.5));
#595=CARTESIAN_POINT('',(-3.10017657248479,-12.0665186818918,2.81761006289288));
#596=CARTESIAN_POINT('',(-4.54219057029536,-11.2339715120809,2.99999999999966));
#597=CARTESIAN_POINT('',(-5.99999999999881,-10.3923048454147,2.99999999999966));
#598=CARTESIAN_POINT('',(-1.66987298107761,-12.8923048454133,2.5));
#599=CARTESIAN_POINT('',(-5.99999999999841,-10.3923048454142,3.));
#600=CARTESIAN_POINT('',(-7.45780942970188,-9.550638178748,3.));
#601=CARTESIAN_POINT('',(-8.89982342751274,-8.71809100893778,2.81761006289288));
#602=CARTESIAN_POINT('',(-10.3301270189199,-7.89230484541625,2.5));
#603=CARTESIAN_POINT('',(-9.87298334620526,-8.1562368679163,0.));
#604=CARTESIAN_POINT('',(-1.6698729810776,-12.8923048454133,0.));
#605=CARTESIAN_POINT('',(-1.66987298107761,-12.8923048454133,4.25));
#606=CARTESIAN_POINT('',(-9.87298334620526,-8.1562368679163,2.8));
#607=CARTESIAN_POINT('',(1.66987298107773,-12.8923048454133,4.25));
#608=CARTESIAN_POINT('',(1.66987298107773,-12.8923048454133,2.5));
#609=CARTESIAN_POINT('',(1.66987298107773,-12.8923048454133,0.));
#610=CARTESIAN_POINT('',(0.,0.,2.5));
#611=CARTESIAN_POINT('',(0.,0.,0.));
#612=CARTESIAN_POINT('',(0.,0.,2.8));
#613=CARTESIAN_POINT('',(10.3301270189222,-7.8923048454133,2.5));
#614=CARTESIAN_POINT('',(8.89982342751465,-8.71809100893531,2.81761006289308));
#615=CARTESIAN_POINT('',(7.45780942970376,-9.55063817874662,3.));
#616=CARTESIAN_POINT('',(5.99999999999995,-10.3923048454133,3.));
#617=CARTESIAN_POINT('',(10.3301270189222,-7.8923048454133,2.5));
#618=CARTESIAN_POINT('',(5.99999999999995,-10.3923048454133,3.));
#619=CARTESIAN_POINT('',(4.54219057029614,-11.23397151208,3.));
#620=CARTESIAN_POINT('',(3.10017657248524,-12.0665186818913,2.81761006289308));
#621=CARTESIAN_POINT('',(1.66987298107773,-12.8923048454133,2.5));
#622=CARTESIAN_POINT('',(2.12701665379252,-12.6283728229131,0.));
#623=CARTESIAN_POINT('',(10.3301270189222,-7.8923048454133,0.));
#624=CARTESIAN_POINT('',(10.3301270189222,-7.8923048454133,4.25));
#625=CARTESIAN_POINT('',(2.12701665379252,-12.6283728229131,2.8));
#626=CARTESIAN_POINT('',(12.,-5.,4.25));
#627=CARTESIAN_POINT('',(12.,-5.,2.5));
#628=CARTESIAN_POINT('',(12.,-5.00000000000001,0.));
#629=CARTESIAN_POINT('',(0.,0.,2.5));
#630=CARTESIAN_POINT('',(0.,0.,0.));
#631=CARTESIAN_POINT('',(0.,0.,2.8));
#632=CARTESIAN_POINT('',(12.,5.00000000000001,4.25));
#633=CARTESIAN_POINT('',(12.,5.00000000000001,2.5));
#634=CARTESIAN_POINT('',(12.,5.00000000000001,0.));
#635=CARTESIAN_POINT('',(12.,5.00000000000001,2.5));
#636=CARTESIAN_POINT('',(12.,3.34842767295598,2.81761006289308));
#637=CARTESIAN_POINT('',(12.,1.68333333333333,3.));
#638=CARTESIAN_POINT('',(12.,-2.27565785489363E-16,3.));
#639=CARTESIAN_POINT('',(12.,0.,3.));
#640=CARTESIAN_POINT('',(12.,-1.68333333333333,3.));
#641=CARTESIAN_POINT('',(12.,-3.34842767295598,2.81761006289308));
#642=CARTESIAN_POINT('',(12.,-5.,2.5));
#643=CARTESIAN_POINT('',(12.,-4.47213595499958,0.));
#644=CARTESIAN_POINT('',(12.,-4.47213595499958,2.8));
#645=CARTESIAN_POINT('',(0.,0.,2.5));
#646=CARTESIAN_POINT('',(0.,0.,0.));
#647=CARTESIAN_POINT('',(0.,0.,2.8));
#648=CARTESIAN_POINT('',(0.,0.,0.));
#649=CARTESIAN_POINT('',(9.19,0.,0.));
#650=CARTESIAN_POINT('',(0.,0.,0.));
#651=CARTESIAN_POINT('',(0.,0.,0.));
#652=CARTESIAN_POINT('',(0.,0.,2.5));
#653=CARTESIAN_POINT('',(0.,0.,2.5));
#654=CARTESIAN_POINT('',(0.,0.,2.5));
#655=CARTESIAN_POINT('',(0.,0.,2.5));
#656=CARTESIAN_POINT('',(0.,0.,2.5));
#657=CARTESIAN_POINT('',(0.,0.,3.));
#658=MECHANICAL_DESIGN_GEOMETRIC_PRESENTATION_REPRESENTATION('',(#24),#659);
#659=(
GEOMETRIC_REPRESENTATION_CONTEXT(3)
GLOBAL_UNCERTAINTY_ASSIGNED_CONTEXT((#660))
GLOBAL_UNIT_ASSIGNED_CONTEXT((#666,#662,#661))
REPRESENTATION_CONTEXT('ohneDaten_Sechskantmutter_M20x1_5_SW24_stp',
'TOP_LEVEL_ASSEMBLY_PART')
);
#660=UNCERTAINTY_MEASURE_WITH_UNIT(LENGTH_MEASURE(0.0508),#666,
'DISTANCE_ACCURACY_VALUE','Maximum Tolerance applied to model');
#661=(
NAMED_UNIT(*)
SI_UNIT($,.STERADIAN.)
SOLID_ANGLE_UNIT()
);
#662=(
CONVERSION_BASED_UNIT('DEGREE',#664)
NAMED_UNIT(#663)
PLANE_ANGLE_UNIT()
);
#663=DIMENSIONAL_EXPONENTS(0.,0.,0.,0.,0.,0.,0.);
#664=PLANE_ANGLE_MEASURE_WITH_UNIT(PLANE_ANGLE_MEASURE(0.0174532925),#665);
#665=(
NAMED_UNIT(*)
PLANE_ANGLE_UNIT()
SI_UNIT($,.RADIAN.)
);
#666=(
LENGTH_UNIT()
NAMED_UNIT(*)
SI_UNIT(.MILLI.,.METRE.)
);
ENDSEC;
END-ISO-10303-21;
