ISO-10303-21;
HEADER;
/* Generated by software containing ST-Developer
 * from STEP Tools, Inc. (www.steptools.com) 
 */
/* OPTION: using custom schema-name function */

FILE_DESCRIPTION(
/* description */ (''),
/* implementation_level */ '2;1');

FILE_NAME(
/* name */ 'Sechskantmutter_M16x1,5_SW19.stp',
/* time_stamp */ '2016-09-21T15:43:29+02:00',
/* author */ (''),
/* organization */ (''),
/* preprocessor_version */ 'ST-DEVELOPER v16',
/* originating_system */ 'SIEMENS PLM Software NX 10.0',
/* authorisation */ '');

FILE_SCHEMA (('AUTOMOTIVE_DESIGN { 1 0 10303 214 3 1 1 1 }'));
ENDSEC;

DATA;
#10=SHAPE_REPRESENTATION_RELATIONSHIP('None',
'relationship between Sechskantmutter_M16x1,5_SW19_stp-None and Sechsk
antmutter_M16x1,5_SW19_stp-None',#22,#11);
#11=ADVANCED_BREP_SHAPE_REPRESENTATION(
'Sechskantmutter_M16x1,5_SW19_stp-None',(#32),#535);
#12=SHAPE_DEFINITION_REPRESENTATION(#13,#22);
#13=PRODUCT_DEFINITION_SHAPE('','',#14);
#14=PRODUCT_DEFINITION(' ','',#16,#15);
#15=PRODUCT_DEFINITION_CONTEXT('part definition',#21,'design');
#16=PRODUCT_DEFINITION_FORMATION_WITH_SPECIFIED_SOURCE(' ',' ',#18,
 .NOT_KNOWN.);
#17=PRODUCT_RELATED_PRODUCT_CATEGORY('part','',(#18));
#18=PRODUCT('5002976__Mutter_part_239039','5002976__Mutter_part_239039',
' ',(#19));
#19=PRODUCT_CONTEXT(' ',#21,'mechanical');
#20=APPLICATION_PROTOCOL_DEFINITION('international standard',
'automotive_design',2010,#21);
#21=APPLICATION_CONTEXT(
'core data for automotive mechanical design processes');
#22=SHAPE_REPRESENTATION('Sechskantmutter_M16x1,5_SW19_stp-None',(#307),
#535);
#23=PRESENTATION_LAYER_ASSIGNMENT('1','Layer 1',(#32));
#24=STYLED_ITEM('',(#25),#32);
#25=PRESENTATION_STYLE_ASSIGNMENT((#26));
#26=SURFACE_STYLE_USAGE(.BOTH.,#27);
#27=SURFACE_SIDE_STYLE('',(#28));
#28=SURFACE_STYLE_FILL_AREA(#29);
#29=FILL_AREA_STYLE('',(#30));
#30=FILL_AREA_STYLE_COLOUR('',#31);
#31=COLOUR_RGB('Medium Gray',0.490196078431373,0.490196078431373,0.490196078431373);
#32=MANIFOLD_SOLID_BREP('',#33);
#33=CLOSED_SHELL('',(#65,#66,#67,#68,#69,#70,#71,#72,#73,#74,#75,#76,#77,
#78,#79,#80));
#34=CONICAL_SURFACE('',#338,9.45,64.5366549381284);
#35=FACE_BOUND('',#113,.T.);
#36=FACE_BOUND('',#114,.T.);
#37=FACE_BOUND('',#115,.T.);
#38=FACE_BOUND('',#116,.T.);
#39=FACE_BOUND('',#117,.T.);
#40=FACE_BOUND('',#118,.T.);
#41=FACE_BOUND('',#119,.T.);
#42=FACE_BOUND('',#120,.T.);
#43=CYLINDRICAL_SURFACE('',#311,10.5);
#44=CYLINDRICAL_SURFACE('',#315,10.5);
#45=CYLINDRICAL_SURFACE('',#319,10.5);
#46=CYLINDRICAL_SURFACE('',#323,10.5);
#47=CYLINDRICAL_SURFACE('',#327,10.5);
#48=CYLINDRICAL_SURFACE('',#331,10.5);
#49=CYLINDRICAL_SURFACE('',#337,7.172);
#50=CIRCLE('',#309,10.5);
#51=CIRCLE('',#310,10.5);
#52=CIRCLE('',#313,10.5);
#53=CIRCLE('',#314,10.5);
#54=CIRCLE('',#317,10.5);
#55=CIRCLE('',#318,10.5);
#56=CIRCLE('',#321,10.5);
#57=CIRCLE('',#322,10.5);
#58=CIRCLE('',#325,10.5);
#59=CIRCLE('',#326,10.5);
#60=CIRCLE('',#329,10.5);
#61=CIRCLE('',#330,10.5);
#62=CIRCLE('',#332,9.45);
#63=CIRCLE('',#333,7.172);
#64=CIRCLE('',#335,7.172);
#65=ADVANCED_FACE('',(#89),#81,.F.);
#66=ADVANCED_FACE('',(#90),#43,.T.);
#67=ADVANCED_FACE('',(#91),#82,.F.);
#68=ADVANCED_FACE('',(#92),#44,.T.);
#69=ADVANCED_FACE('',(#93),#83,.F.);
#70=ADVANCED_FACE('',(#94),#45,.T.);
#71=ADVANCED_FACE('',(#95),#84,.F.);
#72=ADVANCED_FACE('',(#96),#46,.T.);
#73=ADVANCED_FACE('',(#97),#85,.F.);
#74=ADVANCED_FACE('',(#98),#47,.T.);
#75=ADVANCED_FACE('',(#99),#86,.F.);
#76=ADVANCED_FACE('',(#100),#48,.T.);
#77=ADVANCED_FACE('',(#35,#36),#87,.T.);
#78=ADVANCED_FACE('',(#37,#38),#88,.F.);
#79=ADVANCED_FACE('',(#39,#40),#49,.F.);
#80=ADVANCED_FACE('',(#41,#42),#34,.T.);
#81=PLANE('',#308);
#82=PLANE('',#312);
#83=PLANE('',#316);
#84=PLANE('',#320);
#85=PLANE('',#324);
#86=PLANE('',#328);
#87=PLANE('',#334);
#88=PLANE('',#336);
#89=FACE_OUTER_BOUND('',#101,.T.);
#90=FACE_OUTER_BOUND('',#102,.T.);
#91=FACE_OUTER_BOUND('',#103,.T.);
#92=FACE_OUTER_BOUND('',#104,.T.);
#93=FACE_OUTER_BOUND('',#105,.T.);
#94=FACE_OUTER_BOUND('',#106,.T.);
#95=FACE_OUTER_BOUND('',#107,.T.);
#96=FACE_OUTER_BOUND('',#108,.T.);
#97=FACE_OUTER_BOUND('',#109,.T.);
#98=FACE_OUTER_BOUND('',#110,.T.);
#99=FACE_OUTER_BOUND('',#111,.T.);
#100=FACE_OUTER_BOUND('',#112,.T.);
#101=EDGE_LOOP('',(#127,#128,#129,#130));
#102=EDGE_LOOP('',(#131,#132,#133,#134));
#103=EDGE_LOOP('',(#135,#136,#137,#138));
#104=EDGE_LOOP('',(#139,#140,#141,#142));
#105=EDGE_LOOP('',(#143,#144,#145,#146));
#106=EDGE_LOOP('',(#147,#148,#149,#150));
#107=EDGE_LOOP('',(#151,#152,#153,#154));
#108=EDGE_LOOP('',(#155,#156,#157,#158));
#109=EDGE_LOOP('',(#159,#160,#161,#162));
#110=EDGE_LOOP('',(#163,#164,#165,#166));
#111=EDGE_LOOP('',(#167,#168,#169,#170));
#112=EDGE_LOOP('',(#171,#172,#173,#174));
#113=EDGE_LOOP('',(#175));
#114=EDGE_LOOP('',(#176));
#115=EDGE_LOOP('',(#177));
#116=EDGE_LOOP('',(#178,#179,#180,#181,#182,#183,#184,#185,#186,#187,#188,
#189));
#117=EDGE_LOOP('',(#190));
#118=EDGE_LOOP('',(#191));
#119=EDGE_LOOP('',(#192));
#120=EDGE_LOOP('',(#193,#194,#195,#196,#197,#198,#199,#200,#201,#202,#203,
#204));
#121=B_SPLINE_CURVE_WITH_KNOTS('',3,(#425,#426,#427,#428,#429,#430),
 .UNSPECIFIED.,.F.,.F.,(4,2,4),(0.,0.5,1.),.UNSPECIFIED.);
#122=B_SPLINE_CURVE_WITH_KNOTS('',3,(#445,#446,#447,#448,#449,#450),
 .UNSPECIFIED.,.F.,.F.,(4,2,4),(0.,0.5,1.),.UNSPECIFIED.);
#123=B_SPLINE_CURVE_WITH_KNOTS('',3,(#462,#463,#464,#465,#466,#467),
 .UNSPECIFIED.,.F.,.F.,(4,2,4),(0.,0.5,1.),.UNSPECIFIED.);
#124=B_SPLINE_CURVE_WITH_KNOTS('',3,(#479,#480,#481,#482,#483,#484),
 .UNSPECIFIED.,.F.,.F.,(4,2,4),(0.,0.5,1.),.UNSPECIFIED.);
#125=B_SPLINE_CURVE_WITH_KNOTS('',3,(#496,#497,#498,#499,#500,#501),
 .UNSPECIFIED.,.F.,.F.,(4,2,4),(0.,0.5,1.),.UNSPECIFIED.);
#126=B_SPLINE_CURVE_WITH_KNOTS('',3,(#513,#514,#515,#516,#517,#518),
 .UNSPECIFIED.,.F.,.F.,(4,2,4),(0.,0.5,1.),.UNSPECIFIED.);
#127=ORIENTED_EDGE('',*,*,#232,.F.);
#128=ORIENTED_EDGE('',*,*,#233,.T.);
#129=ORIENTED_EDGE('',*,*,#234,.T.);
#130=ORIENTED_EDGE('',*,*,#235,.T.);
#131=ORIENTED_EDGE('',*,*,#236,.F.);
#132=ORIENTED_EDGE('',*,*,#237,.T.);
#133=ORIENTED_EDGE('',*,*,#232,.T.);
#134=ORIENTED_EDGE('',*,*,#238,.T.);
#135=ORIENTED_EDGE('',*,*,#239,.F.);
#136=ORIENTED_EDGE('',*,*,#240,.T.);
#137=ORIENTED_EDGE('',*,*,#236,.T.);
#138=ORIENTED_EDGE('',*,*,#241,.T.);
#139=ORIENTED_EDGE('',*,*,#242,.F.);
#140=ORIENTED_EDGE('',*,*,#243,.T.);
#141=ORIENTED_EDGE('',*,*,#239,.T.);
#142=ORIENTED_EDGE('',*,*,#244,.T.);
#143=ORIENTED_EDGE('',*,*,#245,.F.);
#144=ORIENTED_EDGE('',*,*,#246,.T.);
#145=ORIENTED_EDGE('',*,*,#242,.T.);
#146=ORIENTED_EDGE('',*,*,#247,.T.);
#147=ORIENTED_EDGE('',*,*,#248,.F.);
#148=ORIENTED_EDGE('',*,*,#249,.T.);
#149=ORIENTED_EDGE('',*,*,#245,.T.);
#150=ORIENTED_EDGE('',*,*,#250,.T.);
#151=ORIENTED_EDGE('',*,*,#251,.F.);
#152=ORIENTED_EDGE('',*,*,#252,.T.);
#153=ORIENTED_EDGE('',*,*,#248,.T.);
#154=ORIENTED_EDGE('',*,*,#253,.T.);
#155=ORIENTED_EDGE('',*,*,#254,.F.);
#156=ORIENTED_EDGE('',*,*,#255,.T.);
#157=ORIENTED_EDGE('',*,*,#251,.T.);
#158=ORIENTED_EDGE('',*,*,#256,.T.);
#159=ORIENTED_EDGE('',*,*,#257,.F.);
#160=ORIENTED_EDGE('',*,*,#258,.T.);
#161=ORIENTED_EDGE('',*,*,#254,.T.);
#162=ORIENTED_EDGE('',*,*,#259,.T.);
#163=ORIENTED_EDGE('',*,*,#260,.F.);
#164=ORIENTED_EDGE('',*,*,#261,.T.);
#165=ORIENTED_EDGE('',*,*,#257,.T.);
#166=ORIENTED_EDGE('',*,*,#262,.T.);
#167=ORIENTED_EDGE('',*,*,#263,.F.);
#168=ORIENTED_EDGE('',*,*,#264,.T.);
#169=ORIENTED_EDGE('',*,*,#260,.T.);
#170=ORIENTED_EDGE('',*,*,#265,.T.);
#171=ORIENTED_EDGE('',*,*,#234,.F.);
#172=ORIENTED_EDGE('',*,*,#266,.T.);
#173=ORIENTED_EDGE('',*,*,#263,.T.);
#174=ORIENTED_EDGE('',*,*,#267,.T.);
#175=ORIENTED_EDGE('',*,*,#268,.F.);
#176=ORIENTED_EDGE('',*,*,#269,.F.);
#177=ORIENTED_EDGE('',*,*,#270,.T.);
#178=ORIENTED_EDGE('',*,*,#235,.F.);
#179=ORIENTED_EDGE('',*,*,#267,.F.);
#180=ORIENTED_EDGE('',*,*,#265,.F.);
#181=ORIENTED_EDGE('',*,*,#262,.F.);
#182=ORIENTED_EDGE('',*,*,#259,.F.);
#183=ORIENTED_EDGE('',*,*,#256,.F.);
#184=ORIENTED_EDGE('',*,*,#253,.F.);
#185=ORIENTED_EDGE('',*,*,#250,.F.);
#186=ORIENTED_EDGE('',*,*,#247,.F.);
#187=ORIENTED_EDGE('',*,*,#244,.F.);
#188=ORIENTED_EDGE('',*,*,#241,.F.);
#189=ORIENTED_EDGE('',*,*,#238,.F.);
#190=ORIENTED_EDGE('',*,*,#269,.T.);
#191=ORIENTED_EDGE('',*,*,#270,.F.);
#192=ORIENTED_EDGE('',*,*,#268,.T.);
#193=ORIENTED_EDGE('',*,*,#237,.F.);
#194=ORIENTED_EDGE('',*,*,#240,.F.);
#195=ORIENTED_EDGE('',*,*,#243,.F.);
#196=ORIENTED_EDGE('',*,*,#246,.F.);
#197=ORIENTED_EDGE('',*,*,#249,.F.);
#198=ORIENTED_EDGE('',*,*,#252,.F.);
#199=ORIENTED_EDGE('',*,*,#255,.F.);
#200=ORIENTED_EDGE('',*,*,#258,.F.);
#201=ORIENTED_EDGE('',*,*,#261,.F.);
#202=ORIENTED_EDGE('',*,*,#264,.F.);
#203=ORIENTED_EDGE('',*,*,#266,.F.);
#204=ORIENTED_EDGE('',*,*,#233,.F.);
#205=VERTEX_POINT('',#423);
#206=VERTEX_POINT('',#424);
#207=VERTEX_POINT('',#431);
#208=VERTEX_POINT('',#433);
#209=VERTEX_POINT('',#437);
#210=VERTEX_POINT('',#438);
#211=VERTEX_POINT('',#443);
#212=VERTEX_POINT('',#444);
#213=VERTEX_POINT('',#454);
#214=VERTEX_POINT('',#455);
#215=VERTEX_POINT('',#460);
#216=VERTEX_POINT('',#461);
#217=VERTEX_POINT('',#471);
#218=VERTEX_POINT('',#472);
#219=VERTEX_POINT('',#477);
#220=VERTEX_POINT('',#478);
#221=VERTEX_POINT('',#488);
#222=VERTEX_POINT('',#489);
#223=VERTEX_POINT('',#494);
#224=VERTEX_POINT('',#495);
#225=VERTEX_POINT('',#505);
#226=VERTEX_POINT('',#506);
#227=VERTEX_POINT('',#511);
#228=VERTEX_POINT('',#512);
#229=VERTEX_POINT('',#525);
#230=VERTEX_POINT('',#527);
#231=VERTEX_POINT('',#530);
#232=EDGE_CURVE('',#205,#206,#271,.T.);
#233=EDGE_CURVE('',#205,#207,#121,.T.);
#234=EDGE_CURVE('',#207,#208,#272,.T.);
#235=EDGE_CURVE('',#208,#206,#273,.T.);
#236=EDGE_CURVE('',#209,#210,#274,.T.);
#237=EDGE_CURVE('',#209,#205,#50,.T.);
#238=EDGE_CURVE('',#206,#210,#51,.T.);
#239=EDGE_CURVE('',#211,#212,#275,.T.);
#240=EDGE_CURVE('',#211,#209,#122,.T.);
#241=EDGE_CURVE('',#210,#212,#276,.T.);
#242=EDGE_CURVE('',#213,#214,#277,.T.);
#243=EDGE_CURVE('',#213,#211,#52,.T.);
#244=EDGE_CURVE('',#212,#214,#53,.T.);
#245=EDGE_CURVE('',#215,#216,#278,.T.);
#246=EDGE_CURVE('',#215,#213,#123,.T.);
#247=EDGE_CURVE('',#214,#216,#279,.T.);
#248=EDGE_CURVE('',#217,#218,#280,.T.);
#249=EDGE_CURVE('',#217,#215,#54,.T.);
#250=EDGE_CURVE('',#216,#218,#55,.T.);
#251=EDGE_CURVE('',#219,#220,#281,.T.);
#252=EDGE_CURVE('',#219,#217,#124,.T.);
#253=EDGE_CURVE('',#218,#220,#282,.T.);
#254=EDGE_CURVE('',#221,#222,#283,.T.);
#255=EDGE_CURVE('',#221,#219,#56,.T.);
#256=EDGE_CURVE('',#220,#222,#57,.T.);
#257=EDGE_CURVE('',#223,#224,#284,.T.);
#258=EDGE_CURVE('',#223,#221,#125,.T.);
#259=EDGE_CURVE('',#222,#224,#285,.T.);
#260=EDGE_CURVE('',#225,#226,#286,.T.);
#261=EDGE_CURVE('',#225,#223,#58,.T.);
#262=EDGE_CURVE('',#224,#226,#59,.T.);
#263=EDGE_CURVE('',#227,#228,#287,.T.);
#264=EDGE_CURVE('',#227,#225,#126,.T.);
#265=EDGE_CURVE('',#226,#228,#288,.T.);
#266=EDGE_CURVE('',#207,#227,#60,.T.);
#267=EDGE_CURVE('',#228,#208,#61,.T.);
#268=EDGE_CURVE('',#229,#229,#62,.T.);
#269=EDGE_CURVE('',#230,#230,#63,.T.);
#270=EDGE_CURVE('',#231,#231,#64,.T.);
#271=LINE('',#422,#289);
#272=LINE('',#432,#290);
#273=LINE('',#434,#291);
#274=LINE('',#436,#292);
#275=LINE('',#442,#293);
#276=LINE('',#451,#294);
#277=LINE('',#453,#295);
#278=LINE('',#459,#296);
#279=LINE('',#468,#297);
#280=LINE('',#470,#298);
#281=LINE('',#476,#299);
#282=LINE('',#485,#300);
#283=LINE('',#487,#301);
#284=LINE('',#493,#302);
#285=LINE('',#502,#303);
#286=LINE('',#504,#304);
#287=LINE('',#510,#305);
#288=LINE('',#519,#306);
#289=VECTOR('',#341,1.);
#290=VECTOR('',#342,1.);
#291=VECTOR('',#343,1.);
#292=VECTOR('',#346,1.);
#293=VECTOR('',#353,1.);
#294=VECTOR('',#354,1.);
#295=VECTOR('',#357,1.);
#296=VECTOR('',#364,1.);
#297=VECTOR('',#365,1.);
#298=VECTOR('',#368,1.);
#299=VECTOR('',#375,1.);
#300=VECTOR('',#376,1.);
#301=VECTOR('',#379,1.);
#302=VECTOR('',#386,1.);
#303=VECTOR('',#387,1.);
#304=VECTOR('',#390,1.);
#305=VECTOR('',#397,1.);
#306=VECTOR('',#398,1.);
#307=AXIS2_PLACEMENT_3D('',#421,#339,#340);
#308=AXIS2_PLACEMENT_3D('',#435,#344,#345);
#309=AXIS2_PLACEMENT_3D('',#439,#347,#348);
#310=AXIS2_PLACEMENT_3D('',#440,#349,#350);
#311=AXIS2_PLACEMENT_3D('',#441,#351,#352);
#312=AXIS2_PLACEMENT_3D('',#452,#355,#356);
#313=AXIS2_PLACEMENT_3D('',#456,#358,#359);
#314=AXIS2_PLACEMENT_3D('',#457,#360,#361);
#315=AXIS2_PLACEMENT_3D('',#458,#362,#363);
#316=AXIS2_PLACEMENT_3D('',#469,#366,#367);
#317=AXIS2_PLACEMENT_3D('',#473,#369,#370);
#318=AXIS2_PLACEMENT_3D('',#474,#371,#372);
#319=AXIS2_PLACEMENT_3D('',#475,#373,#374);
#320=AXIS2_PLACEMENT_3D('',#486,#377,#378);
#321=AXIS2_PLACEMENT_3D('',#490,#380,#381);
#322=AXIS2_PLACEMENT_3D('',#491,#382,#383);
#323=AXIS2_PLACEMENT_3D('',#492,#384,#385);
#324=AXIS2_PLACEMENT_3D('',#503,#388,#389);
#325=AXIS2_PLACEMENT_3D('',#507,#391,#392);
#326=AXIS2_PLACEMENT_3D('',#508,#393,#394);
#327=AXIS2_PLACEMENT_3D('',#509,#395,#396);
#328=AXIS2_PLACEMENT_3D('',#520,#399,#400);
#329=AXIS2_PLACEMENT_3D('',#521,#401,#402);
#330=AXIS2_PLACEMENT_3D('',#522,#403,#404);
#331=AXIS2_PLACEMENT_3D('',#523,#405,#406);
#332=AXIS2_PLACEMENT_3D('',#524,#407,#408);
#333=AXIS2_PLACEMENT_3D('',#526,#409,#410);
#334=AXIS2_PLACEMENT_3D('',#528,#411,#412);
#335=AXIS2_PLACEMENT_3D('',#529,#413,#414);
#336=AXIS2_PLACEMENT_3D('',#531,#415,#416);
#337=AXIS2_PLACEMENT_3D('',#532,#417,#418);
#338=AXIS2_PLACEMENT_3D('',#533,#419,#420);
#339=DIRECTION('',(0.,0.,1.));
#340=DIRECTION('',(1.,0.,0.));
#341=DIRECTION('',(0.,0.,-1.));
#342=DIRECTION('',(0.,0.,-1.));
#343=DIRECTION('',(-0.866025403784437,0.500000000000003,0.));
#344=DIRECTION('',(-0.500000000000003,-0.866025403784437,0.));
#345=DIRECTION('',(0.866025403784437,-0.500000000000003,0.));
#346=DIRECTION('',(0.,0.,-1.));
#347=DIRECTION('',(0.,0.,-1.));
#348=DIRECTION('',(-1.,0.,0.));
#349=DIRECTION('',(0.,0.,1.));
#350=DIRECTION('',(1.,0.,0.));
#351=DIRECTION('',(0.,0.,-1.));
#352=DIRECTION('',(-1.,0.,0.));
#353=DIRECTION('',(0.,0.,-1.));
#354=DIRECTION('',(-0.866025403784439,-0.499999999999999,0.));
#355=DIRECTION('',(0.499999999999999,-0.866025403784439,0.));
#356=DIRECTION('',(0.866025403784439,0.499999999999999,0.));
#357=DIRECTION('',(0.,0.,-1.));
#358=DIRECTION('',(0.,0.,-1.));
#359=DIRECTION('',(-1.,0.,0.));
#360=DIRECTION('',(0.,0.,1.));
#361=DIRECTION('',(1.,0.,0.));
#362=DIRECTION('',(0.,0.,-1.));
#363=DIRECTION('',(-1.,0.,0.));
#364=DIRECTION('',(0.,0.,-1.));
#365=DIRECTION('',(4.84869951806103E-15,-1.,0.));
#366=DIRECTION('',(1.,4.84869951806103E-15,0.));
#367=DIRECTION('',(-4.84855211535518E-15,1.,0.));
#368=DIRECTION('',(0.,0.,-1.));
#369=DIRECTION('',(0.,0.,-1.));
#370=DIRECTION('',(-1.,0.,0.));
#371=DIRECTION('',(0.,0.,1.));
#372=DIRECTION('',(1.,0.,0.));
#373=DIRECTION('',(0.,0.,-1.));
#374=DIRECTION('',(-1.,0.,0.));
#375=DIRECTION('',(0.,0.,-1.));
#376=DIRECTION('',(0.866025403784515,-0.499999999999868,0.));
#377=DIRECTION('',(0.499999999999868,0.866025403784515,0.));
#378=DIRECTION('',(-0.866025403784515,0.499999999999868,0.));
#379=DIRECTION('',(0.,0.,-1.));
#380=DIRECTION('',(0.,0.,-1.));
#381=DIRECTION('',(-1.,0.,0.));
#382=DIRECTION('',(0.,0.,1.));
#383=DIRECTION('',(1.,0.,0.));
#384=DIRECTION('',(0.,0.,-1.));
#385=DIRECTION('',(-1.,0.,0.));
#386=DIRECTION('',(0.,0.,-1.));
#387=DIRECTION('',(0.866025403784441,0.499999999999996,0.));
#388=DIRECTION('',(-0.499999999999996,0.866025403784441,0.));
#389=DIRECTION('',(-0.866025403784441,-0.499999999999996,0.));
#390=DIRECTION('',(0.,0.,-1.));
#391=DIRECTION('',(0.,0.,-1.));
#392=DIRECTION('',(-1.,0.,0.));
#393=DIRECTION('',(0.,0.,1.));
#394=DIRECTION('',(1.,0.,0.));
#395=DIRECTION('',(0.,0.,-1.));
#396=DIRECTION('',(-1.,0.,0.));
#397=DIRECTION('',(0.,0.,-1.));
#398=DIRECTION('',(0.,1.,0.));
#399=DIRECTION('',(-1.,0.,0.));
#400=DIRECTION('',(0.,0.,1.));
#401=DIRECTION('',(0.,0.,-1.));
#402=DIRECTION('',(-1.,0.,0.));
#403=DIRECTION('',(0.,0.,1.));
#404=DIRECTION('',(1.,0.,0.));
#405=DIRECTION('',(0.,0.,-1.));
#406=DIRECTION('',(-1.,0.,0.));
#407=DIRECTION('',(0.,0.,-1.));
#408=DIRECTION('',(-1.,0.,0.));
#409=DIRECTION('',(0.,0.,1.));
#410=DIRECTION('',(1.,0.,0.));
#411=DIRECTION('',(0.,0.,1.));
#412=DIRECTION('',(1.,0.,0.));
#413=DIRECTION('',(0.,0.,1.));
#414=DIRECTION('',(1.,0.,0.));
#415=DIRECTION('',(0.,0.,1.));
#416=DIRECTION('',(1.,0.,0.));
#417=DIRECTION('',(0.,0.,1.));
#418=DIRECTION('',(1.,0.,0.));
#419=DIRECTION('',(0.,0.,-1.));
#420=DIRECTION('',(-1.,0.,1.17186041540067E-17));
#421=CARTESIAN_POINT('',(0.,0.,0.));
#422=CARTESIAN_POINT('',(0.877016653827812,10.463309313449,2.8));
#423=CARTESIAN_POINT('',(0.877016653827813,10.463309313449,2.3));
#424=CARTESIAN_POINT('',(0.877016653827812,10.463309313449,0.));
#425=CARTESIAN_POINT('',(0.877016653827815,10.463309313449,2.3));
#426=CARTESIAN_POINT('',(2.16004303254002,9.72255368832212,2.60047708525845));
#427=CARTESIAN_POINT('',(3.44702473607683,8.97951445534301,2.77527799877987));
#428=CARTESIAN_POINT('',(6.0319337324141,7.48711655047699,2.77709555599498));
#429=CARTESIAN_POINT('',(7.33757025755965,6.73330695122039,2.60103603841066));
#430=CARTESIAN_POINT('',(8.62298334618729,5.99117335848135,2.3));
#431=CARTESIAN_POINT('',(8.62298334618729,5.99117335848135,2.3));
#432=CARTESIAN_POINT('',(8.62298334618729,5.99117335848135,2.8));
#433=CARTESIAN_POINT('',(8.62298334618729,5.99117335848135,0.));
#434=CARTESIAN_POINT('',(8.62298334618729,5.99117335848135,0.));
#435=CARTESIAN_POINT('',(8.62298334618729,5.99117335848135,2.8));
#436=CARTESIAN_POINT('',(-0.877016653792633,10.463309313452,2.8));
#437=CARTESIAN_POINT('',(-0.87701665379264,10.463309313452,2.29999999999999));
#438=CARTESIAN_POINT('',(-0.877016653792633,10.463309313452,0.));
#439=CARTESIAN_POINT('',(0.,0.,2.3));
#440=CARTESIAN_POINT('',(0.,0.,0.));
#441=CARTESIAN_POINT('',(0.,0.,2.8));
#442=CARTESIAN_POINT('',(-8.62298334620741,5.99117335845239,2.8));
#443=CARTESIAN_POINT('',(-8.62298334620742,5.9911733584524,2.29999999999999));
#444=CARTESIAN_POINT('',(-8.62298334620741,5.99117335845239,0.));
#445=CARTESIAN_POINT('',(-8.62298334620743,5.99117335845241,2.29999999999999));
#446=CARTESIAN_POINT('',(-7.33995696748639,6.7319289835844,2.60047708526265));
#447=CARTESIAN_POINT('',(-6.05297526394053,7.47496821656872,2.77527799878697));
#448=CARTESIAN_POINT('',(-3.46806626758456,8.96736612144552,2.77709555600218));
#449=CARTESIAN_POINT('',(-2.16242974242921,9.72117572070776,2.6010360384149));
#450=CARTESIAN_POINT('',(-0.877016653792621,10.463309313452,2.29999999999999));
#451=CARTESIAN_POINT('',(-0.877016653792566,10.463309313452,0.));
#452=CARTESIAN_POINT('',(-0.877016653792566,10.463309313452,2.8));
#453=CARTESIAN_POINT('',(-9.49999999999994,4.4721359549997,2.8));
#454=CARTESIAN_POINT('',(-9.49999999999997,4.47213595499964,2.3));
#455=CARTESIAN_POINT('',(-9.49999999999994,4.4721359549997,0.));
#456=CARTESIAN_POINT('',(0.,0.,2.3));
#457=CARTESIAN_POINT('',(0.,0.,0.));
#458=CARTESIAN_POINT('',(0.,0.,2.8));
#459=CARTESIAN_POINT('',(-9.49999999999996,-4.47213595499967,2.8));
#460=CARTESIAN_POINT('',(-9.49999999999996,-4.47213595499967,2.3));
#461=CARTESIAN_POINT('',(-9.49999999999996,-4.47213595499967,0.));
#462=CARTESIAN_POINT('',(-9.49999999999996,-4.47213595499967,2.3));
#463=CARTESIAN_POINT('',(-9.49999999999996,-2.99062470473567,2.60047708526268));
#464=CARTESIAN_POINT('',(-9.49999999999997,-1.50454623876699,2.775277998787));
#465=CARTESIAN_POINT('',(-9.49999999999998,1.48024957098668,2.7770955560022));
#466=CARTESIAN_POINT('',(-9.49999999999999,2.9878687695112,2.60103603841491));
#467=CARTESIAN_POINT('',(-9.5,4.47213595499964,2.29999999999999));
#468=CARTESIAN_POINT('',(-9.5,4.47213595499958,0.));
#469=CARTESIAN_POINT('',(-9.5,4.47213595499958,2.8));
#470=CARTESIAN_POINT('',(-8.62298334620536,-5.99117335845534,2.8));
#471=CARTESIAN_POINT('',(-8.62298334620546,-5.99117335845519,2.3));
#472=CARTESIAN_POINT('',(-8.62298334620536,-5.99117335845534,0.));
#473=CARTESIAN_POINT('',(0.,0.,2.3));
#474=CARTESIAN_POINT('',(0.,0.,0.));
#475=CARTESIAN_POINT('',(0.,0.,2.8));
#476=CARTESIAN_POINT('',(-0.877016653792615,-10.463309313452,2.8));
#477=CARTESIAN_POINT('',(-0.877016653792603,-10.463309313452,2.29999999999999));
#478=CARTESIAN_POINT('',(-0.877016653792615,-10.463309313452,0.));
#479=CARTESIAN_POINT('',(-0.877016653792591,-10.463309313452,2.29999999999999));
#480=CARTESIAN_POINT('',(-2.16004303251332,-9.72255368832042,2.60047708526247));
#481=CARTESIAN_POINT('',(-3.44702473605886,-8.97951445533655,2.77527799878665));
#482=CARTESIAN_POINT('',(-6.03193373241416,-7.48711655046066,2.77709555600186));
#483=CARTESIAN_POINT('',(-7.33757025756915,-6.73330695119888,2.60103603841473));
#484=CARTESIAN_POINT('',(-8.62298334620543,-5.99117335845512,2.30000000000003));
#485=CARTESIAN_POINT('',(-8.62298334620557,-5.99117335845504,0.));
#486=CARTESIAN_POINT('',(-8.62298334620557,-5.99117335845504,2.8));
#487=CARTESIAN_POINT('',(0.877016653771722,-10.4633093134537,2.8));
#488=CARTESIAN_POINT('',(0.877016653782166,-10.4633093134528,2.3));
#489=CARTESIAN_POINT('',(0.877016653771722,-10.4633093134537,0.));
#490=CARTESIAN_POINT('',(0.,0.,2.3));
#491=CARTESIAN_POINT('',(0.,0.,0.));
#492=CARTESIAN_POINT('',(0.,0.,2.8));
#493=CARTESIAN_POINT('',(8.62298334620739,-5.99117335845241,2.8));
#494=CARTESIAN_POINT('',(8.6229833462074,-5.99117335845243,2.29999999999999));
#495=CARTESIAN_POINT('',(8.62298334620739,-5.99117335845241,0.));
#496=CARTESIAN_POINT('',(8.62298334620741,-5.99117335845244,2.29999999999999));
#497=CARTESIAN_POINT('',(7.33995696748504,-6.73192898358518,2.60047708526296));
#498=CARTESIAN_POINT('',(6.05297526393786,-7.47496821657027,2.77527799878731));
#499=CARTESIAN_POINT('',(3.46806626757921,-8.9673661214486,2.77709555600184));
#500=CARTESIAN_POINT('',(2.16242974242257,-9.72117572071159,2.60103603841385));
#501=CARTESIAN_POINT('',(0.877016653784733,-10.4633093134565,2.29999999999816));
#502=CARTESIAN_POINT('',(0.877016653792531,-10.463309313452,0.));
#503=CARTESIAN_POINT('',(0.877016653792531,-10.463309313452,2.8));
#504=CARTESIAN_POINT('',(9.5000000000001,-4.47213595499938,2.8));
#505=CARTESIAN_POINT('',(9.50000000000005,-4.47213595499948,2.3));
#506=CARTESIAN_POINT('',(9.5000000000001,-4.47213595499938,0.));
#507=CARTESIAN_POINT('',(0.,0.,2.3));
#508=CARTESIAN_POINT('',(0.,0.,0.));
#509=CARTESIAN_POINT('',(0.,0.,2.8));
#510=CARTESIAN_POINT('',(9.5,4.47213595499958,2.8));
#511=CARTESIAN_POINT('',(9.5,4.47213595499958,2.3));
#512=CARTESIAN_POINT('',(9.5,4.47213595499958,0.));
#513=CARTESIAN_POINT('',(9.5,4.47213595499958,2.3));
#514=CARTESIAN_POINT('',(9.5,2.99062470473562,2.60047708526267));
#515=CARTESIAN_POINT('',(9.5,1.50454623876698,2.77527799878698));
#516=CARTESIAN_POINT('',(9.5,-1.48024957098661,2.77709555600219));
#517=CARTESIAN_POINT('',(9.5,-2.98786876951108,2.60103603841492));
#518=CARTESIAN_POINT('',(9.5,-4.47213595499949,2.30000000000002));
#519=CARTESIAN_POINT('',(9.5,-4.47213595499958,0.));
#520=CARTESIAN_POINT('',(9.5,-4.47213595499958,2.8));
#521=CARTESIAN_POINT('',(0.,0.,2.3));
#522=CARTESIAN_POINT('',(0.,0.,0.));
#523=CARTESIAN_POINT('',(0.,0.,2.8));
#524=CARTESIAN_POINT('',(0.,0.,2.8));
#525=CARTESIAN_POINT('',(-9.45,0.,2.8));
#526=CARTESIAN_POINT('',(0.,0.,2.8));
#527=CARTESIAN_POINT('',(7.172,0.,2.8));
#528=CARTESIAN_POINT('',(0.,0.,2.8));
#529=CARTESIAN_POINT('',(0.,0.,0.));
#530=CARTESIAN_POINT('',(7.172,0.,0.));
#531=CARTESIAN_POINT('',(0.,0.,0.));
#532=CARTESIAN_POINT('',(0.,0.,0.));
#533=CARTESIAN_POINT('',(0.,0.,2.8));
#534=MECHANICAL_DESIGN_GEOMETRIC_PRESENTATION_REPRESENTATION('',(#24),#535);
#535=(
GEOMETRIC_REPRESENTATION_CONTEXT(3)
GLOBAL_UNCERTAINTY_ASSIGNED_CONTEXT((#536))
GLOBAL_UNIT_ASSIGNED_CONTEXT((#542,#538,#537))
REPRESENTATION_CONTEXT('Sechskantmutter_M16x1,5_SW19',
'TOP_LEVEL_ASSEMBLY_PART')
);
#536=UNCERTAINTY_MEASURE_WITH_UNIT(LENGTH_MEASURE(0.0508),#542,
'DISTANCE_ACCURACY_VALUE','Maximum Tolerance applied to model');
#537=(
NAMED_UNIT(*)
SI_UNIT($,.STERADIAN.)
SOLID_ANGLE_UNIT()
);
#538=(
CONVERSION_BASED_UNIT('DEGREE',#540)
NAMED_UNIT(#539)
PLANE_ANGLE_UNIT()
);
#539=DIMENSIONAL_EXPONENTS(0.,0.,0.,0.,0.,0.,0.);
#540=PLANE_ANGLE_MEASURE_WITH_UNIT(PLANE_ANGLE_MEASURE(0.0174532925),#541);
#541=(
NAMED_UNIT(*)
PLANE_ANGLE_UNIT()
SI_UNIT($,.RADIAN.)
);
#542=(
LENGTH_UNIT()
NAMED_UNIT(*)
SI_UNIT(.MILLI.,.METRE.)
);
ENDSEC;
END-ISO-10303-21;
