ISO-10303-21;
HEADER;
/* Generated by software containing ST-Developer
 * from STEP Tools, Inc. (www.steptools.com) 
 */
/* OPTION: using custom schema-name function */

FILE_DESCRIPTION(
/* description */ (''),
/* implementation_level */ '2;1');

FILE_NAME(
/* name */ 'Schutzkappe_8x10.stp',
/* time_stamp */ '2018-09-06T10:26:24+02:00',
/* author */ (''),
/* organization */ (''),
/* preprocessor_version */ 'ST-DEVELOPER v16',
/* originating_system */ 'SIEMENS PLM Software NX 10.0',
/* authorisation */ '');

FILE_SCHEMA (('AUTOMOTIVE_DESIGN { 1 0 10303 214 3 1 1 1 }'));
ENDSEC;

DATA;
#10=SHAPE_REPRESENTATION_RELATIONSHIP('None',
'relationship between Schutzkappe_8x10-None and Schutzkappe_8x10-None',
#22,#11);
#11=ADVANCED_BREP_SHAPE_REPRESENTATION('Schutzkappe_8x10-None',(#32),#245);
#12=SHAPE_DEFINITION_REPRESENTATION(#13,#22);
#13=PRODUCT_DEFINITION_SHAPE('','',#14);
#14=PRODUCT_DEFINITION(' ','',#16,#15);
#15=PRODUCT_DEFINITION_CONTEXT('part definition',#21,'design');
#16=PRODUCT_DEFINITION_FORMATION_WITH_SPECIFIED_SOURCE(' ',' ',#18,
 .NOT_KNOWN.);
#17=PRODUCT_RELATED_PRODUCT_CATEGORY('part','',(#18));
#18=PRODUCT('Schutzkappe_8x10','Schutzkappe_8x10',' ',(#19));
#19=PRODUCT_CONTEXT(' ',#21,'mechanical');
#20=APPLICATION_PROTOCOL_DEFINITION('international standard',
'automotive_design',2010,#21);
#21=APPLICATION_CONTEXT(
'core data for automotive mechanical design processes');
#22=SHAPE_REPRESENTATION('Schutzkappe_8x10-None',(#146),#245);
#23=PRESENTATION_LAYER_ASSIGNMENT('1','Layer 1',(#32));
#24=STYLED_ITEM('',(#25),#32);
#25=PRESENTATION_STYLE_ASSIGNMENT((#26));
#26=SURFACE_STYLE_USAGE(.BOTH.,#27);
#27=SURFACE_SIDE_STYLE('',(#28));
#28=SURFACE_STYLE_FILL_AREA(#29);
#29=FILL_AREA_STYLE('',(#30));
#30=FILL_AREA_STYLE_COLOUR('',#31);
#31=COLOUR_RGB('Medium Gray',0.490196078431373,0.490196078431373,0.490196078431373);
#32=MANIFOLD_SOLID_BREP('1',#33);
#33=CLOSED_SHELL('',(#43,#44,#45,#46,#47,#48,#49,#50,#51,#52,#53));
#34=FACE_OUTER_BOUND('',#92,.T.);
#35=FACE_OUTER_BOUND('',#93,.T.);
#36=PLANE('',#163);
#37=PLANE('',#164);
#38=PLANE('',#165);
#39=PLANE('',#166);
#40=PLANE('',#167);
#41=CONICAL_SURFACE('',#160,4.875,45.);
#42=CONICAL_SURFACE('',#162,4.125,45.);
#43=ADVANCED_FACE('',(#58,#59),#54,.F.);
#44=ADVANCED_FACE('',(#60,#61),#55,.T.);
#45=ADVANCED_FACE('',(#62,#63),#56,.T.);
#46=ADVANCED_FACE('',(#64,#65),#57,.T.);
#47=ADVANCED_FACE('',(#66,#67),#41,.T.);
#48=ADVANCED_FACE('',(#68,#69),#42,.F.);
#49=ADVANCED_FACE('',(#70,#71),#36,.T.);
#50=ADVANCED_FACE('',(#72,#73),#37,.T.);
#51=ADVANCED_FACE('',(#34),#38,.T.);
#52=ADVANCED_FACE('',(#35),#39,.T.);
#53=ADVANCED_FACE('',(#74,#75),#40,.T.);
#54=CYLINDRICAL_SURFACE('',#149,4.);
#55=CYLINDRICAL_SURFACE('',#152,3.);
#56=CYLINDRICAL_SURFACE('',#155,6.);
#57=CYLINDRICAL_SURFACE('',#158,5.);
#58=FACE_BOUND('',#76,.T.);
#59=FACE_BOUND('',#77,.T.);
#60=FACE_BOUND('',#78,.T.);
#61=FACE_BOUND('',#79,.T.);
#62=FACE_BOUND('',#80,.T.);
#63=FACE_BOUND('',#81,.T.);
#64=FACE_BOUND('',#82,.T.);
#65=FACE_BOUND('',#83,.T.);
#66=FACE_BOUND('',#84,.T.);
#67=FACE_BOUND('',#85,.T.);
#68=FACE_BOUND('',#86,.T.);
#69=FACE_BOUND('',#87,.T.);
#70=FACE_BOUND('',#88,.T.);
#71=FACE_BOUND('',#89,.T.);
#72=FACE_BOUND('',#90,.T.);
#73=FACE_BOUND('',#91,.T.);
#74=FACE_BOUND('',#94,.T.);
#75=FACE_BOUND('',#95,.T.);
#76=EDGE_LOOP('',(#96));
#77=EDGE_LOOP('',(#97));
#78=EDGE_LOOP('',(#98));
#79=EDGE_LOOP('',(#99));
#80=EDGE_LOOP('',(#100));
#81=EDGE_LOOP('',(#101));
#82=EDGE_LOOP('',(#102));
#83=EDGE_LOOP('',(#103));
#84=EDGE_LOOP('',(#104));
#85=EDGE_LOOP('',(#105));
#86=EDGE_LOOP('',(#106));
#87=EDGE_LOOP('',(#107));
#88=EDGE_LOOP('',(#108));
#89=EDGE_LOOP('',(#109));
#90=EDGE_LOOP('',(#110));
#91=EDGE_LOOP('',(#111));
#92=EDGE_LOOP('',(#112));
#93=EDGE_LOOP('',(#113));
#94=EDGE_LOOP('',(#114));
#95=EDGE_LOOP('',(#115));
#96=ORIENTED_EDGE('',*,*,#126,.F.);
#97=ORIENTED_EDGE('',*,*,#127,.T.);
#98=ORIENTED_EDGE('',*,*,#128,.T.);
#99=ORIENTED_EDGE('',*,*,#129,.F.);
#100=ORIENTED_EDGE('',*,*,#130,.T.);
#101=ORIENTED_EDGE('',*,*,#131,.F.);
#102=ORIENTED_EDGE('',*,*,#132,.T.);
#103=ORIENTED_EDGE('',*,*,#133,.F.);
#104=ORIENTED_EDGE('',*,*,#134,.T.);
#105=ORIENTED_EDGE('',*,*,#132,.F.);
#106=ORIENTED_EDGE('',*,*,#135,.F.);
#107=ORIENTED_EDGE('',*,*,#126,.T.);
#108=ORIENTED_EDGE('',*,*,#134,.F.);
#109=ORIENTED_EDGE('',*,*,#135,.T.);
#110=ORIENTED_EDGE('',*,*,#130,.F.);
#111=ORIENTED_EDGE('',*,*,#133,.T.);
#112=ORIENTED_EDGE('',*,*,#131,.T.);
#113=ORIENTED_EDGE('',*,*,#128,.F.);
#114=ORIENTED_EDGE('',*,*,#127,.F.);
#115=ORIENTED_EDGE('',*,*,#129,.T.);
#116=VERTEX_POINT('',#214);
#117=VERTEX_POINT('',#216);
#118=VERTEX_POINT('',#219);
#119=VERTEX_POINT('',#221);
#120=VERTEX_POINT('',#224);
#121=VERTEX_POINT('',#226);
#122=VERTEX_POINT('',#229);
#123=VERTEX_POINT('',#231);
#124=VERTEX_POINT('',#234);
#125=VERTEX_POINT('',#237);
#126=EDGE_CURVE('',#116,#116,#136,.T.);
#127=EDGE_CURVE('',#117,#117,#137,.T.);
#128=EDGE_CURVE('',#118,#118,#138,.T.);
#129=EDGE_CURVE('',#119,#119,#139,.T.);
#130=EDGE_CURVE('',#120,#120,#140,.T.);
#131=EDGE_CURVE('',#121,#121,#141,.T.);
#132=EDGE_CURVE('',#122,#122,#142,.T.);
#133=EDGE_CURVE('',#123,#123,#143,.T.);
#134=EDGE_CURVE('',#124,#124,#144,.T.);
#135=EDGE_CURVE('',#125,#125,#145,.T.);
#136=CIRCLE('',#147,4.);
#137=CIRCLE('',#148,4.);
#138=CIRCLE('',#150,3.);
#139=CIRCLE('',#151,3.);
#140=CIRCLE('',#153,6.);
#141=CIRCLE('',#154,6.);
#142=CIRCLE('',#156,5.);
#143=CIRCLE('',#157,5.);
#144=CIRCLE('',#159,4.75);
#145=CIRCLE('',#161,4.25);
#146=AXIS2_PLACEMENT_3D('',#212,#168,#169);
#147=AXIS2_PLACEMENT_3D('',#213,#170,#171);
#148=AXIS2_PLACEMENT_3D('',#215,#172,#173);
#149=AXIS2_PLACEMENT_3D('',#217,#174,#175);
#150=AXIS2_PLACEMENT_3D('',#218,#176,#177);
#151=AXIS2_PLACEMENT_3D('',#220,#178,#179);
#152=AXIS2_PLACEMENT_3D('',#222,#180,#181);
#153=AXIS2_PLACEMENT_3D('',#223,#182,#183);
#154=AXIS2_PLACEMENT_3D('',#225,#184,#185);
#155=AXIS2_PLACEMENT_3D('',#227,#186,#187);
#156=AXIS2_PLACEMENT_3D('',#228,#188,#189);
#157=AXIS2_PLACEMENT_3D('',#230,#190,#191);
#158=AXIS2_PLACEMENT_3D('',#232,#192,#193);
#159=AXIS2_PLACEMENT_3D('',#233,#194,#195);
#160=AXIS2_PLACEMENT_3D('',#235,#196,#197);
#161=AXIS2_PLACEMENT_3D('',#236,#198,#199);
#162=AXIS2_PLACEMENT_3D('',#238,#200,#201);
#163=AXIS2_PLACEMENT_3D('',#239,#202,#203);
#164=AXIS2_PLACEMENT_3D('',#240,#204,#205);
#165=AXIS2_PLACEMENT_3D('',#241,#206,#207);
#166=AXIS2_PLACEMENT_3D('',#242,#208,#209);
#167=AXIS2_PLACEMENT_3D('',#243,#210,#211);
#168=DIRECTION('',(0.,0.,1.));
#169=DIRECTION('',(1.,0.,0.));
#170=DIRECTION('',(0.,0.,1.));
#171=DIRECTION('',(1.,0.,0.));
#172=DIRECTION('',(0.,0.,1.));
#173=DIRECTION('',(1.,0.,0.));
#174=DIRECTION('',(0.,0.,-1.));
#175=DIRECTION('',(-1.,0.,0.));
#176=DIRECTION('',(0.,0.,1.));
#177=DIRECTION('',(1.,0.,0.));
#178=DIRECTION('',(0.,0.,1.));
#179=DIRECTION('',(1.,0.,0.));
#180=DIRECTION('',(0.,0.,-1.));
#181=DIRECTION('',(-1.,0.,0.));
#182=DIRECTION('',(0.,0.,1.));
#183=DIRECTION('',(1.,0.,0.));
#184=DIRECTION('',(0.,0.,1.));
#185=DIRECTION('',(1.,0.,0.));
#186=DIRECTION('',(0.,0.,-1.));
#187=DIRECTION('',(-1.,0.,0.));
#188=DIRECTION('',(0.,0.,1.));
#189=DIRECTION('',(1.,0.,0.));
#190=DIRECTION('',(0.,0.,1.));
#191=DIRECTION('',(1.,0.,0.));
#192=DIRECTION('',(0.,0.,-1.));
#193=DIRECTION('',(-1.,0.,0.));
#194=DIRECTION('',(0.,0.,1.));
#195=DIRECTION('',(1.,0.,0.));
#196=DIRECTION('',(0.,0.,1.));
#197=DIRECTION('',(-1.,0.,-6.89444147996754E-17));
#198=DIRECTION('',(0.,0.,1.));
#199=DIRECTION('',(1.,0.,0.));
#200=DIRECTION('',(0.,0.,-1.));
#201=DIRECTION('',(-1.,0.,4.15703061279143E-17));
#202=DIRECTION('',(0.,0.,-1.));
#203=DIRECTION('',(1.,0.,0.));
#204=DIRECTION('',(0.,0.,-1.));
#205=DIRECTION('',(1.,0.,0.));
#206=DIRECTION('',(0.,0.,1.));
#207=DIRECTION('',(-1.,0.,0.));
#208=DIRECTION('',(0.,0.,-1.));
#209=DIRECTION('',(1.,0.,0.));
#210=DIRECTION('',(0.,0.,-1.));
#211=DIRECTION('',(1.,0.,0.));
#212=CARTESIAN_POINT('',(0.,0.,0.));
#213=CARTESIAN_POINT('',(0.,0.,0.25));
#214=CARTESIAN_POINT('',(4.,0.,0.25));
#215=CARTESIAN_POINT('',(0.,0.,10.6666666666667));
#216=CARTESIAN_POINT('',(4.,0.,10.6666666666667));
#217=CARTESIAN_POINT('',(0.,0.,5.45833333333333));
#218=CARTESIAN_POINT('',(0.,0.,10.));
#219=CARTESIAN_POINT('',(3.,0.,10.));
#220=CARTESIAN_POINT('',(0.,0.,10.6666666666667));
#221=CARTESIAN_POINT('',(3.,0.,10.6666666666667));
#222=CARTESIAN_POINT('',(0.,0.,10.3333333333333));
#223=CARTESIAN_POINT('',(0.,0.,10.));
#224=CARTESIAN_POINT('',(6.,0.,10.));
#225=CARTESIAN_POINT('',(0.,0.,12.));
#226=CARTESIAN_POINT('',(6.,0.,12.));
#227=CARTESIAN_POINT('',(0.,0.,11.));
#228=CARTESIAN_POINT('',(0.,0.,0.25));
#229=CARTESIAN_POINT('',(5.,0.,0.25));
#230=CARTESIAN_POINT('',(0.,0.,10.));
#231=CARTESIAN_POINT('',(5.,0.,10.));
#232=CARTESIAN_POINT('',(0.,0.,5.125));
#233=CARTESIAN_POINT('',(0.,0.,0.));
#234=CARTESIAN_POINT('',(4.75,0.,0.));
#235=CARTESIAN_POINT('',(0.,0.,0.125));
#236=CARTESIAN_POINT('',(0.,0.,0.));
#237=CARTESIAN_POINT('',(4.25,0.,0.));
#238=CARTESIAN_POINT('',(0.,0.,0.125));
#239=CARTESIAN_POINT('',(4.5,0.,0.));
#240=CARTESIAN_POINT('',(5.5,0.,10.));
#241=CARTESIAN_POINT('',(3.,0.,12.));
#242=CARTESIAN_POINT('',(1.5,0.,10.));
#243=CARTESIAN_POINT('',(3.5,0.,10.6666666666667));
#244=MECHANICAL_DESIGN_GEOMETRIC_PRESENTATION_REPRESENTATION('',(#24),#245);
#245=(
GEOMETRIC_REPRESENTATION_CONTEXT(3)
GLOBAL_UNCERTAINTY_ASSIGNED_CONTEXT((#246))
GLOBAL_UNIT_ASSIGNED_CONTEXT((#252,#248,#247))
REPRESENTATION_CONTEXT('Schutzkappe_8x10','TOP_LEVEL_ASSEMBLY_PART')
);
#246=UNCERTAINTY_MEASURE_WITH_UNIT(LENGTH_MEASURE(2.E-5),#252,
'DISTANCE_ACCURACY_VALUE','Maximum Tolerance applied to model');
#247=(
NAMED_UNIT(*)
SI_UNIT($,.STERADIAN.)
SOLID_ANGLE_UNIT()
);
#248=(
CONVERSION_BASED_UNIT('DEGREE',#250)
NAMED_UNIT(#249)
PLANE_ANGLE_UNIT()
);
#249=DIMENSIONAL_EXPONENTS(0.,0.,0.,0.,0.,0.,0.);
#250=PLANE_ANGLE_MEASURE_WITH_UNIT(PLANE_ANGLE_MEASURE(0.0174532925),#251);
#251=(
NAMED_UNIT(*)
PLANE_ANGLE_UNIT()
SI_UNIT($,.RADIAN.)
);
#252=(
LENGTH_UNIT()
NAMED_UNIT(*)
SI_UNIT(.MILLI.,.METRE.)
);
ENDSEC;
END-ISO-10303-21;
