ISO-10303-21;
HEADER;
/* Generated by software containing ST-Developer
 * from STEP Tools, Inc. (www.steptools.com) 
 */
/* OPTION: using custom schema-name function */

FILE_DESCRIPTION(
/* description */ (''),
/* implementation_level */ '2;1');

FILE_NAME(
/* name */ '5016785__Schraube_part_94444_stp.stp',
/* time_stamp */ '2018-09-19T14:48:30+02:00',
/* author */ (''),
/* organization */ (''),
/* preprocessor_version */ 'ST-DEVELOPER v16',
/* originating_system */ 'SIEMENS PLM Software NX 10.0',
/* authorisation */ '');

FILE_SCHEMA (('AUTOMOTIVE_DESIGN { 1 0 10303 214 3 1 1 1 }'));
ENDSEC;

DATA;
#10=SHAPE_REPRESENTATION_RELATIONSHIP('None',
'relationship between 5016785__Schraube_part_94444_stp-None and 501678
5__Schraube_part_94444_stp-None',#22,#11);
#11=ADVANCED_BREP_SHAPE_REPRESENTATION(
'5016785__Schraube_part_94444_stp-None',(#32),#567);
#12=SHAPE_DEFINITION_REPRESENTATION(#13,#22);
#13=PRODUCT_DEFINITION_SHAPE('','',#14);
#14=PRODUCT_DEFINITION(' ','',#16,#15);
#15=PRODUCT_DEFINITION_CONTEXT('part definition',#21,'design');
#16=PRODUCT_DEFINITION_FORMATION_WITH_SPECIFIED_SOURCE(' ',' ',#18,
 .NOT_KNOWN.);
#17=PRODUCT_RELATED_PRODUCT_CATEGORY('part','',(#18));
#18=PRODUCT('5016785__Schraube_part_94444_stp',
'5016785__Schraube_part_94444_stp',' ',(#19));
#19=PRODUCT_CONTEXT(' ',#21,'mechanical');
#20=APPLICATION_PROTOCOL_DEFINITION('international standard',
'automotive_design',2010,#21);
#21=APPLICATION_CONTEXT(
'core data for automotive mechanical design processes');
#22=SHAPE_REPRESENTATION('5016785__Schraube_part_94444_stp-None',(#334),
#567);
#23=PRESENTATION_LAYER_ASSIGNMENT('1','Layer 1',(#32));
#24=STYLED_ITEM('',(#25),#32);
#25=PRESENTATION_STYLE_ASSIGNMENT((#26));
#26=SURFACE_STYLE_USAGE(.BOTH.,#27);
#27=SURFACE_SIDE_STYLE('',(#28));
#28=SURFACE_STYLE_FILL_AREA(#29);
#29=FILL_AREA_STYLE('',(#30));
#30=FILL_AREA_STYLE_COLOUR('',#31);
#31=COLOUR_RGB('Medium Gray',0.490196078431373,0.490196078431373,0.490196078431373);
#32=MANIFOLD_SOLID_BREP('',#33);
#33=CLOSED_SHELL('',(#106,#107,#108,#109,#110,#111,#112,#113,#114,#115,
#116,#117,#118,#119,#120,#121,#122,#123,#124,#125,#126));
#34=TOROIDAL_SURFACE('',#375,2.7,0.3);
#35=LINE('',#528,#53);
#36=LINE('',#530,#54);
#37=LINE('',#532,#55);
#38=LINE('',#534,#56);
#39=LINE('',#536,#57);
#40=LINE('',#537,#58);
#41=LINE('',#539,#59);
#42=LINE('',#541,#60);
#43=LINE('',#543,#61);
#44=LINE('',#545,#62);
#45=LINE('',#547,#63);
#46=LINE('',#549,#64);
#47=LINE('',#551,#65);
#48=LINE('',#553,#66);
#49=LINE('',#556,#67);
#50=LINE('',#558,#68);
#51=LINE('',#560,#69);
#52=LINE('',#562,#70);
#53=VECTOR('',#436,1.);
#54=VECTOR('',#437,1.);
#55=VECTOR('',#438,1.);
#56=VECTOR('',#439,1.);
#57=VECTOR('',#440,1.);
#58=VECTOR('',#441,1.);
#59=VECTOR('',#442,1.);
#60=VECTOR('',#443,1.);
#61=VECTOR('',#444,1.);
#62=VECTOR('',#445,1.);
#63=VECTOR('',#448,1.);
#64=VECTOR('',#451,1.);
#65=VECTOR('',#454,1.);
#66=VECTOR('',#457,1.);
#67=VECTOR('',#462,1.);
#68=VECTOR('',#465,1.);
#69=VECTOR('',#468,1.);
#70=VECTOR('',#471,1.);
#71=CONICAL_SURFACE('',#355,1.3,44.9999999999998);
#72=CONICAL_SURFACE('',#356,1.45,44.9999999999998);
#73=PLANE('',#347);
#74=PLANE('',#354);
#75=PLANE('',#364);
#76=PLANE('',#365);
#77=PLANE('',#366);
#78=PLANE('',#367);
#79=PLANE('',#368);
#80=PLANE('',#369);
#81=PLANE('',#370);
#82=PLANE('',#371);
#83=PLANE('',#372);
#84=PLANE('',#373);
#85=PLANE('',#374);
#86=CYLINDRICAL_SURFACE('',#344,3.);
#87=CYLINDRICAL_SURFACE('',#349,1.3);
#88=CYLINDRICAL_SURFACE('',#352,1.45);
#89=FACE_BOUND('',#143,.T.);
#90=FACE_BOUND('',#144,.T.);
#91=FACE_BOUND('',#145,.T.);
#92=FACE_BOUND('',#146,.T.);
#93=FACE_BOUND('',#147,.T.);
#94=FACE_BOUND('',#148,.T.);
#95=FACE_BOUND('',#149,.T.);
#96=FACE_BOUND('',#150,.T.);
#97=FACE_BOUND('',#152,.T.);
#98=FACE_BOUND('',#153,.T.);
#99=FACE_BOUND('',#154,.T.);
#100=FACE_BOUND('',#155,.T.);
#101=FACE_BOUND('',#157,.T.);
#102=FACE_BOUND('',#158,.T.);
#103=FACE_BOUND('',#159,.T.);
#104=FACE_BOUND('',#170,.T.);
#105=FACE_BOUND('',#171,.T.);
#106=ADVANCED_FACE('',(#129),#127,.T.);
#107=ADVANCED_FACE('',(#89,#90),#86,.T.);
#108=ADVANCED_FACE('',(#91,#92),#73,.F.);
#109=ADVANCED_FACE('',(#93,#94),#87,.T.);
#110=ADVANCED_FACE('',(#95,#96),#88,.T.);
#111=ADVANCED_FACE('',(#130),#74,.F.);
#112=ADVANCED_FACE('',(#97,#98),#71,.T.);
#113=ADVANCED_FACE('',(#99,#100),#72,.T.);
#114=ADVANCED_FACE('',(#131),#128,.T.);
#115=ADVANCED_FACE('',(#101,#102,#103),#75,.T.);
#116=ADVANCED_FACE('',(#132),#76,.F.);
#117=ADVANCED_FACE('',(#133),#77,.F.);
#118=ADVANCED_FACE('',(#134),#78,.F.);
#119=ADVANCED_FACE('',(#135),#79,.F.);
#120=ADVANCED_FACE('',(#136),#80,.F.);
#121=ADVANCED_FACE('',(#137),#81,.F.);
#122=ADVANCED_FACE('',(#138),#82,.F.);
#123=ADVANCED_FACE('',(#139),#83,.F.);
#124=ADVANCED_FACE('',(#140),#84,.F.);
#125=ADVANCED_FACE('',(#141),#85,.F.);
#126=ADVANCED_FACE('',(#104,#105),#34,.T.);
#127=SPHERICAL_SURFACE('',#341,6.);
#128=SPHERICAL_SURFACE('',#363,6.);
#129=FACE_OUTER_BOUND('',#142,.T.);
#130=FACE_OUTER_BOUND('',#151,.T.);
#131=FACE_OUTER_BOUND('',#156,.T.);
#132=FACE_OUTER_BOUND('',#160,.T.);
#133=FACE_OUTER_BOUND('',#161,.T.);
#134=FACE_OUTER_BOUND('',#162,.T.);
#135=FACE_OUTER_BOUND('',#163,.T.);
#136=FACE_OUTER_BOUND('',#164,.T.);
#137=FACE_OUTER_BOUND('',#165,.T.);
#138=FACE_OUTER_BOUND('',#166,.T.);
#139=FACE_OUTER_BOUND('',#167,.T.);
#140=FACE_OUTER_BOUND('',#168,.T.);
#141=FACE_OUTER_BOUND('',#169,.T.);
#142=EDGE_LOOP('',(#172,#173,#174,#175,#176,#177));
#143=EDGE_LOOP('',(#178));
#144=EDGE_LOOP('',(#179));
#145=EDGE_LOOP('',(#180));
#146=EDGE_LOOP('',(#181));
#147=EDGE_LOOP('',(#182));
#148=EDGE_LOOP('',(#183));
#149=EDGE_LOOP('',(#184));
#150=EDGE_LOOP('',(#185));
#151=EDGE_LOOP('',(#186));
#152=EDGE_LOOP('',(#187));
#153=EDGE_LOOP('',(#188));
#154=EDGE_LOOP('',(#189));
#155=EDGE_LOOP('',(#190));
#156=EDGE_LOOP('',(#191,#192,#193,#194,#195,#196));
#157=EDGE_LOOP('',(#197,#198,#199,#200,#201,#202));
#158=EDGE_LOOP('',(#203,#204,#205,#206,#207,#208));
#159=EDGE_LOOP('',(#209));
#160=EDGE_LOOP('',(#210,#211,#212));
#161=EDGE_LOOP('',(#213,#214,#215,#216));
#162=EDGE_LOOP('',(#217,#218,#219,#220));
#163=EDGE_LOOP('',(#221,#222,#223,#224));
#164=EDGE_LOOP('',(#225,#226,#227));
#165=EDGE_LOOP('',(#228,#229,#230));
#166=EDGE_LOOP('',(#231,#232,#233,#234));
#167=EDGE_LOOP('',(#235,#236,#237,#238));
#168=EDGE_LOOP('',(#239,#240,#241,#242));
#169=EDGE_LOOP('',(#243,#244,#245));
#170=EDGE_LOOP('',(#246));
#171=EDGE_LOOP('',(#247));
#172=ORIENTED_EDGE('',*,*,#276,.F.);
#173=ORIENTED_EDGE('',*,*,#277,.T.);
#174=ORIENTED_EDGE('',*,*,#278,.F.);
#175=ORIENTED_EDGE('',*,*,#279,.F.);
#176=ORIENTED_EDGE('',*,*,#280,.F.);
#177=ORIENTED_EDGE('',*,*,#281,.F.);
#178=ORIENTED_EDGE('',*,*,#282,.T.);
#179=ORIENTED_EDGE('',*,*,#283,.T.);
#180=ORIENTED_EDGE('',*,*,#284,.T.);
#181=ORIENTED_EDGE('',*,*,#285,.F.);
#182=ORIENTED_EDGE('',*,*,#286,.F.);
#183=ORIENTED_EDGE('',*,*,#285,.T.);
#184=ORIENTED_EDGE('',*,*,#287,.T.);
#185=ORIENTED_EDGE('',*,*,#288,.T.);
#186=ORIENTED_EDGE('',*,*,#289,.T.);
#187=ORIENTED_EDGE('',*,*,#288,.F.);
#188=ORIENTED_EDGE('',*,*,#286,.T.);
#189=ORIENTED_EDGE('',*,*,#289,.F.);
#190=ORIENTED_EDGE('',*,*,#287,.F.);
#191=ORIENTED_EDGE('',*,*,#290,.F.);
#192=ORIENTED_EDGE('',*,*,#291,.T.);
#193=ORIENTED_EDGE('',*,*,#292,.F.);
#194=ORIENTED_EDGE('',*,*,#293,.F.);
#195=ORIENTED_EDGE('',*,*,#294,.F.);
#196=ORIENTED_EDGE('',*,*,#295,.F.);
#197=ORIENTED_EDGE('',*,*,#291,.F.);
#198=ORIENTED_EDGE('',*,*,#296,.T.);
#199=ORIENTED_EDGE('',*,*,#297,.T.);
#200=ORIENTED_EDGE('',*,*,#298,.T.);
#201=ORIENTED_EDGE('',*,*,#299,.T.);
#202=ORIENTED_EDGE('',*,*,#300,.T.);
#203=ORIENTED_EDGE('',*,*,#277,.F.);
#204=ORIENTED_EDGE('',*,*,#301,.T.);
#205=ORIENTED_EDGE('',*,*,#302,.T.);
#206=ORIENTED_EDGE('',*,*,#303,.T.);
#207=ORIENTED_EDGE('',*,*,#304,.T.);
#208=ORIENTED_EDGE('',*,*,#305,.T.);
#209=ORIENTED_EDGE('',*,*,#283,.F.);
#210=ORIENTED_EDGE('',*,*,#276,.T.);
#211=ORIENTED_EDGE('',*,*,#306,.F.);
#212=ORIENTED_EDGE('',*,*,#301,.F.);
#213=ORIENTED_EDGE('',*,*,#281,.T.);
#214=ORIENTED_EDGE('',*,*,#307,.F.);
#215=ORIENTED_EDGE('',*,*,#302,.F.);
#216=ORIENTED_EDGE('',*,*,#306,.T.);
#217=ORIENTED_EDGE('',*,*,#280,.T.);
#218=ORIENTED_EDGE('',*,*,#308,.F.);
#219=ORIENTED_EDGE('',*,*,#303,.F.);
#220=ORIENTED_EDGE('',*,*,#307,.T.);
#221=ORIENTED_EDGE('',*,*,#279,.T.);
#222=ORIENTED_EDGE('',*,*,#309,.F.);
#223=ORIENTED_EDGE('',*,*,#304,.F.);
#224=ORIENTED_EDGE('',*,*,#308,.T.);
#225=ORIENTED_EDGE('',*,*,#278,.T.);
#226=ORIENTED_EDGE('',*,*,#305,.F.);
#227=ORIENTED_EDGE('',*,*,#309,.T.);
#228=ORIENTED_EDGE('',*,*,#290,.T.);
#229=ORIENTED_EDGE('',*,*,#310,.F.);
#230=ORIENTED_EDGE('',*,*,#296,.F.);
#231=ORIENTED_EDGE('',*,*,#295,.T.);
#232=ORIENTED_EDGE('',*,*,#311,.F.);
#233=ORIENTED_EDGE('',*,*,#297,.F.);
#234=ORIENTED_EDGE('',*,*,#310,.T.);
#235=ORIENTED_EDGE('',*,*,#294,.T.);
#236=ORIENTED_EDGE('',*,*,#312,.F.);
#237=ORIENTED_EDGE('',*,*,#298,.F.);
#238=ORIENTED_EDGE('',*,*,#311,.T.);
#239=ORIENTED_EDGE('',*,*,#293,.T.);
#240=ORIENTED_EDGE('',*,*,#313,.F.);
#241=ORIENTED_EDGE('',*,*,#299,.F.);
#242=ORIENTED_EDGE('',*,*,#312,.T.);
#243=ORIENTED_EDGE('',*,*,#292,.T.);
#244=ORIENTED_EDGE('',*,*,#300,.F.);
#245=ORIENTED_EDGE('',*,*,#313,.T.);
#246=ORIENTED_EDGE('',*,*,#284,.F.);
#247=ORIENTED_EDGE('',*,*,#282,.F.);
#248=VERTEX_POINT('',#480);
#249=VERTEX_POINT('',#481);
#250=VERTEX_POINT('',#483);
#251=VERTEX_POINT('',#485);
#252=VERTEX_POINT('',#487);
#253=VERTEX_POINT('',#489);
#254=VERTEX_POINT('',#493);
#255=VERTEX_POINT('',#495);
#256=VERTEX_POINT('',#498);
#257=VERTEX_POINT('',#500);
#258=VERTEX_POINT('',#503);
#259=VERTEX_POINT('',#506);
#260=VERTEX_POINT('',#508);
#261=VERTEX_POINT('',#511);
#262=VERTEX_POINT('',#516);
#263=VERTEX_POINT('',#517);
#264=VERTEX_POINT('',#519);
#265=VERTEX_POINT('',#521);
#266=VERTEX_POINT('',#523);
#267=VERTEX_POINT('',#525);
#268=VERTEX_POINT('',#529);
#269=VERTEX_POINT('',#531);
#270=VERTEX_POINT('',#533);
#271=VERTEX_POINT('',#535);
#272=VERTEX_POINT('',#538);
#273=VERTEX_POINT('',#540);
#274=VERTEX_POINT('',#542);
#275=VERTEX_POINT('',#544);
#276=EDGE_CURVE('',#248,#249,#314,.T.);
#277=EDGE_CURVE('',#248,#250,#315,.T.);
#278=EDGE_CURVE('',#251,#250,#316,.T.);
#279=EDGE_CURVE('',#252,#251,#317,.T.);
#280=EDGE_CURVE('',#253,#252,#318,.T.);
#281=EDGE_CURVE('',#249,#253,#319,.T.);
#282=EDGE_CURVE('',#254,#254,#320,.T.);
#283=EDGE_CURVE('',#255,#255,#321,.T.);
#284=EDGE_CURVE('',#256,#256,#322,.T.);
#285=EDGE_CURVE('',#257,#257,#323,.T.);
#286=EDGE_CURVE('',#258,#258,#324,.T.);
#287=EDGE_CURVE('',#259,#259,#325,.T.);
#288=EDGE_CURVE('',#260,#260,#326,.T.);
#289=EDGE_CURVE('',#261,#261,#327,.T.);
#290=EDGE_CURVE('',#262,#263,#328,.T.);
#291=EDGE_CURVE('',#262,#264,#329,.T.);
#292=EDGE_CURVE('',#265,#264,#330,.T.);
#293=EDGE_CURVE('',#266,#265,#331,.T.);
#294=EDGE_CURVE('',#267,#266,#332,.T.);
#295=EDGE_CURVE('',#263,#267,#333,.T.);
#296=EDGE_CURVE('',#262,#268,#35,.T.);
#297=EDGE_CURVE('',#268,#269,#36,.T.);
#298=EDGE_CURVE('',#269,#270,#37,.T.);
#299=EDGE_CURVE('',#270,#271,#38,.T.);
#300=EDGE_CURVE('',#271,#264,#39,.T.);
#301=EDGE_CURVE('',#248,#272,#40,.T.);
#302=EDGE_CURVE('',#272,#273,#41,.T.);
#303=EDGE_CURVE('',#273,#274,#42,.T.);
#304=EDGE_CURVE('',#274,#275,#43,.T.);
#305=EDGE_CURVE('',#275,#250,#44,.T.);
#306=EDGE_CURVE('',#272,#249,#45,.T.);
#307=EDGE_CURVE('',#273,#253,#46,.T.);
#308=EDGE_CURVE('',#274,#252,#47,.T.);
#309=EDGE_CURVE('',#275,#251,#48,.T.);
#310=EDGE_CURVE('',#268,#263,#49,.T.);
#311=EDGE_CURVE('',#269,#267,#50,.T.);
#312=EDGE_CURVE('',#270,#266,#51,.T.);
#313=EDGE_CURVE('',#271,#265,#52,.T.);
#314=CIRCLE('',#335,5.97473848800096);
#315=CIRCLE('',#336,2.99332590941915);
#316=CIRCLE('',#337,5.97473848800096);
#317=CIRCLE('',#338,5.97473848800096);
#318=CIRCLE('',#339,5.65685424949238);
#319=CIRCLE('',#340,5.97473848800096);
#320=CIRCLE('',#342,3.);
#321=CIRCLE('',#343,3.);
#322=CIRCLE('',#345,2.7);
#323=CIRCLE('',#346,1.3);
#324=CIRCLE('',#348,1.3);
#325=CIRCLE('',#350,1.45);
#326=CIRCLE('',#351,1.45);
#327=CIRCLE('',#353,1.3);
#328=CIRCLE('',#357,5.97473848800096);
#329=CIRCLE('',#358,2.99332590941915);
#330=CIRCLE('',#359,5.97473848800096);
#331=CIRCLE('',#360,5.97473848800096);
#332=CIRCLE('',#361,5.65685424949238);
#333=CIRCLE('',#362,5.97473848800096);
#334=AXIS2_PLACEMENT_3D('',#478,#376,#377);
#335=AXIS2_PLACEMENT_3D('',#479,#378,#379);
#336=AXIS2_PLACEMENT_3D('',#482,#380,#381);
#337=AXIS2_PLACEMENT_3D('',#484,#382,#383);
#338=AXIS2_PLACEMENT_3D('',#486,#384,#385);
#339=AXIS2_PLACEMENT_3D('',#488,#386,#387);
#340=AXIS2_PLACEMENT_3D('',#490,#388,#389);
#341=AXIS2_PLACEMENT_3D('',#491,#390,#391);
#342=AXIS2_PLACEMENT_3D('',#492,#392,#393);
#343=AXIS2_PLACEMENT_3D('',#494,#394,#395);
#344=AXIS2_PLACEMENT_3D('',#496,#396,#397);
#345=AXIS2_PLACEMENT_3D('',#497,#398,#399);
#346=AXIS2_PLACEMENT_3D('',#499,#400,#401);
#347=AXIS2_PLACEMENT_3D('',#501,#402,#403);
#348=AXIS2_PLACEMENT_3D('',#502,#404,#405);
#349=AXIS2_PLACEMENT_3D('',#504,#406,#407);
#350=AXIS2_PLACEMENT_3D('',#505,#408,#409);
#351=AXIS2_PLACEMENT_3D('',#507,#410,#411);
#352=AXIS2_PLACEMENT_3D('',#509,#412,#413);
#353=AXIS2_PLACEMENT_3D('',#510,#414,#415);
#354=AXIS2_PLACEMENT_3D('',#512,#416,#417);
#355=AXIS2_PLACEMENT_3D('',#513,#418,#419);
#356=AXIS2_PLACEMENT_3D('',#514,#420,#421);
#357=AXIS2_PLACEMENT_3D('',#515,#422,#423);
#358=AXIS2_PLACEMENT_3D('',#518,#424,#425);
#359=AXIS2_PLACEMENT_3D('',#520,#426,#427);
#360=AXIS2_PLACEMENT_3D('',#522,#428,#429);
#361=AXIS2_PLACEMENT_3D('',#524,#430,#431);
#362=AXIS2_PLACEMENT_3D('',#526,#432,#433);
#363=AXIS2_PLACEMENT_3D('',#527,#434,#435);
#364=AXIS2_PLACEMENT_3D('',#546,#446,#447);
#365=AXIS2_PLACEMENT_3D('',#548,#449,#450);
#366=AXIS2_PLACEMENT_3D('',#550,#452,#453);
#367=AXIS2_PLACEMENT_3D('',#552,#455,#456);
#368=AXIS2_PLACEMENT_3D('',#554,#458,#459);
#369=AXIS2_PLACEMENT_3D('',#555,#460,#461);
#370=AXIS2_PLACEMENT_3D('',#557,#463,#464);
#371=AXIS2_PLACEMENT_3D('',#559,#466,#467);
#372=AXIS2_PLACEMENT_3D('',#561,#469,#470);
#373=AXIS2_PLACEMENT_3D('',#563,#472,#473);
#374=AXIS2_PLACEMENT_3D('',#564,#474,#475);
#375=AXIS2_PLACEMENT_3D('',#565,#476,#477);
#376=DIRECTION('',(0.,0.,1.));
#377=DIRECTION('',(1.,0.,0.));
#378=DIRECTION('',(-1.,5.34244548760973E-16,0.));
#379=DIRECTION('',(-5.26246681176493E-16,-1.,0.));
#380=DIRECTION('',(0.,0.,1.));
#381=DIRECTION('',(-1.,0.,0.));
#382=DIRECTION('',(-1.,5.65670698688089E-16,0.));
#383=DIRECTION('',(-5.62539555740389E-16,-1.,0.));
#384=DIRECTION('',(-2.2431769085907E-16,-1.,0.));
#385=DIRECTION('',(1.,-2.17757247383376E-16,0.));
#386=DIRECTION('',(-1.,0.,0.));
#387=DIRECTION('',(0.,0.,1.));
#388=DIRECTION('',(7.47725636196899E-17,1.,0.));
#389=DIRECTION('',(-1.,7.25857491277921E-17,0.));
#390=DIRECTION('',(-3.69778549322349E-32,0.,1.));
#391=DIRECTION('',(1.,0.,0.));
#392=DIRECTION('',(0.,0.,1.));
#393=DIRECTION('',(-1.,0.,0.));
#394=DIRECTION('',(0.,0.,-1.));
#395=DIRECTION('',(-1.,0.,0.));
#396=DIRECTION('',(0.,0.,1.));
#397=DIRECTION('',(1.,0.,0.));
#398=DIRECTION('',(0.,0.,-1.));
#399=DIRECTION('',(-1.,0.,0.));
#400=DIRECTION('',(0.,0.,-1.));
#401=DIRECTION('',(-1.,0.,0.));
#402=DIRECTION('',(0.,0.,1.));
#403=DIRECTION('',(1.,0.,0.));
#404=DIRECTION('',(0.,0.,-1.));
#405=DIRECTION('',(1.,0.,0.));
#406=DIRECTION('',(0.,0.,1.));
#407=DIRECTION('',(1.,0.,0.));
#408=DIRECTION('',(0.,0.,1.));
#409=DIRECTION('',(-1.,0.,0.));
#410=DIRECTION('',(0.,0.,-1.));
#411=DIRECTION('',(-1.,0.,0.));
#412=DIRECTION('',(0.,0.,1.));
#413=DIRECTION('',(1.,0.,0.));
#414=DIRECTION('',(0.,0.,-1.));
#415=DIRECTION('',(-1.,0.,0.));
#416=DIRECTION('',(0.,0.,1.));
#417=DIRECTION('',(1.,0.,0.));
#418=DIRECTION('',(0.,0.,-1.));
#419=DIRECTION('',(-1.,0.,1.73247126333449E-17));
#420=DIRECTION('',(0.,0.,1.));
#421=DIRECTION('',(1.,0.,-1.03932706134714E-17));
#422=DIRECTION('',(1.,-1.88556899562696E-16,0.));
#423=DIRECTION('',(1.8146437281948E-16,1.,0.));
#424=DIRECTION('',(0.,0.,1.));
#425=DIRECTION('',(-1.,0.,0.));
#426=DIRECTION('',(1.,-1.88556899562696E-16,0.));
#427=DIRECTION('',(1.8146437281948E-16,1.,0.));
#428=DIRECTION('',(7.477256361969E-17,1.,0.));
#429=DIRECTION('',(-1.,7.25857491277921E-17,0.));
#430=DIRECTION('',(1.,-3.94255335449274E-16,0.));
#431=DIRECTION('',(3.83323354170844E-16,1.,0.));
#432=DIRECTION('',(-2.2431769085907E-16,-1.,0.));
#433=DIRECTION('',(1.,-2.17757247383376E-16,0.));
#434=DIRECTION('',(-3.69778549322349E-32,0.,1.));
#435=DIRECTION('',(1.,0.,0.));
#436=DIRECTION('',(-1.88556899562696E-16,-1.,0.));
#437=DIRECTION('',(-1.,2.2431769085907E-16,0.));
#438=DIRECTION('',(-3.94255335449274E-16,-1.,0.));
#439=DIRECTION('',(1.,-7.477256361969E-17,0.));
#440=DIRECTION('',(-1.88556899562696E-16,-1.,0.));
#441=DIRECTION('',(5.34244548760973E-16,1.,0.));
#442=DIRECTION('',(1.,-7.47725636196899E-17,0.));
#443=DIRECTION('',(0.,1.,0.));
#444=DIRECTION('',(-1.,2.2431769085907E-16,0.));
#445=DIRECTION('',(5.65670698688089E-16,1.,0.));
#446=DIRECTION('',(0.,0.,1.));
#447=DIRECTION('',(1.,0.,0.));
#448=DIRECTION('',(0.,0.,1.));
#449=DIRECTION('',(1.,-5.34244548760973E-16,0.));
#450=DIRECTION('',(5.34294830600857E-16,1.,0.));
#451=DIRECTION('',(0.,0.,1.));
#452=DIRECTION('',(-7.47725636196899E-17,-1.,0.));
#453=DIRECTION('',(1.,-7.48099499014998E-17,0.));
#454=DIRECTION('',(0.,0.,1.));
#455=DIRECTION('',(1.,0.,0.));
#456=DIRECTION('',(0.,0.,-1.));
#457=DIRECTION('',(0.,0.,1.));
#458=DIRECTION('',(2.2431769085907E-16,1.,0.));
#459=DIRECTION('',(-1.,2.24321429487251E-16,0.));
#460=DIRECTION('',(1.,-5.65670698688089E-16,0.));
#461=DIRECTION('',(5.65628273385688E-16,1.,0.));
#462=DIRECTION('',(0.,0.,1.));
#463=DIRECTION('',(-1.,1.88556899562696E-16,0.));
#464=DIRECTION('',(-1.88542757795229E-16,-1.,0.));
#465=DIRECTION('',(0.,0.,1.));
#466=DIRECTION('',(2.2431769085907E-16,1.,0.));
#467=DIRECTION('',(-1.,2.24321429487251E-16,0.));
#468=DIRECTION('',(0.,0.,1.));
#469=DIRECTION('',(-1.,3.94255335449274E-16,0.));
#470=DIRECTION('',(-3.94215909915729E-16,-1.,0.));
#471=DIRECTION('',(0.,0.,1.));
#472=DIRECTION('',(-7.477256361969E-17,-1.,0.));
#473=DIRECTION('',(1.,-7.48099499014998E-17,0.));
#474=DIRECTION('',(-1.,1.88556899562696E-16,0.));
#475=DIRECTION('',(-1.88542757795229E-16,-1.,0.));
#476=DIRECTION('',(0.,0.,1.));
#477=DIRECTION('',(1.,0.,0.));
#478=CARTESIAN_POINT('',(0.,0.,0.));
#479=CARTESIAN_POINT('',(0.55,1.07423701325479E-13,24.650630285484));
#480=CARTESIAN_POINT('',(0.549999999999998,-2.94236299596079,29.850630285484));
#481=CARTESIAN_POINT('',(0.55,-0.549999999999892,30.6));
#482=CARTESIAN_POINT('',(0.,1.07717535827298E-13,29.850630285484));
#483=CARTESIAN_POINT('',(0.550000000000002,2.94236299596101,29.850630285484));
#484=CARTESIAN_POINT('',(0.55,1.07406416943019E-13,24.650630285484));
#485=CARTESIAN_POINT('',(0.55,0.550000000000108,30.6));
#486=CARTESIAN_POINT('',(1.23374729972488E-16,0.550000000000108,24.650630285484));
#487=CARTESIAN_POINT('',(2.,0.550000000000108,30.2806835711999));
#488=CARTESIAN_POINT('',(2.,1.07717535827298E-13,24.650630285484));
#489=CARTESIAN_POINT('',(2.,-0.549999999999892,30.2806835711999));
#490=CARTESIAN_POINT('',(-4.11249099908295E-17,-0.549999999999892,24.650630285484));
#491=CARTESIAN_POINT('',(0.,1.07717535827298E-13,24.650630285484));
#492=CARTESIAN_POINT('',(0.,1.07717535827298E-13,28.350630285484));
#493=CARTESIAN_POINT('',(-3.,1.07717535827298E-13,28.350630285484));
#494=CARTESIAN_POINT('',(0.,1.07717535827298E-13,29.850630285484));
#495=CARTESIAN_POINT('',(-3.,1.07717535827298E-13,29.850630285484));
#496=CARTESIAN_POINT('',(0.,1.07717535827298E-13,28.050630285484));
#497=CARTESIAN_POINT('',(0.,1.07717535827298E-13,28.050630285484));
#498=CARTESIAN_POINT('',(-2.7,1.07717535827298E-13,28.050630285484));
#499=CARTESIAN_POINT('',(0.,1.07717535827298E-13,28.050630285484));
#500=CARTESIAN_POINT('',(-1.3,1.07717535827298E-13,28.050630285484));
#501=CARTESIAN_POINT('',(0.,1.07717535827298E-13,28.050630285484));
#502=CARTESIAN_POINT('',(0.,1.07717535827298E-13,13.050630285484));
#503=CARTESIAN_POINT('',(1.3,1.07717535827298E-13,13.050630285484));
#504=CARTESIAN_POINT('',(0.,1.07717535827298E-13,13.050630285484));
#505=CARTESIAN_POINT('',(0.,1.07717535827298E-13,0.200630285484015));
#506=CARTESIAN_POINT('',(-1.45,1.07717535827298E-13,0.200630285484015));
#507=CARTESIAN_POINT('',(0.,1.07717535827298E-13,12.900630285484));
#508=CARTESIAN_POINT('',(-1.45,1.07717535827298E-13,12.900630285484));
#509=CARTESIAN_POINT('',(0.,1.07717535827298E-13,0.0506302854840143));
#510=CARTESIAN_POINT('',(0.,1.07717535827298E-13,0.0506302854840143));
#511=CARTESIAN_POINT('',(-1.3,1.07717535827298E-13,0.0506302854840143));
#512=CARTESIAN_POINT('',(0.,1.07717535827298E-13,0.0506302854840143));
#513=CARTESIAN_POINT('',(0.,1.07717535827298E-13,13.050630285484));
#514=CARTESIAN_POINT('',(0.,1.07717535827298E-13,0.200630285484015));
#515=CARTESIAN_POINT('',(-0.55,1.07821242122057E-13,24.650630285484));
#516=CARTESIAN_POINT('',(-0.55,2.94236299596101,29.850630285484));
#517=CARTESIAN_POINT('',(-0.55,0.550000000000108,30.6));
#518=CARTESIAN_POINT('',(0.,1.07717535827298E-13,29.850630285484));
#519=CARTESIAN_POINT('',(-0.550000000000001,-2.94236299596079,29.850630285484));
#520=CARTESIAN_POINT('',(-0.55,1.07821242122057E-13,24.650630285484));
#521=CARTESIAN_POINT('',(-0.55,-0.549999999999892,30.6));
#522=CARTESIAN_POINT('',(-4.11249099908295E-17,-0.549999999999892,24.650630285484));
#523=CARTESIAN_POINT('',(-2.,-0.549999999999892,30.2806835711999));
#524=CARTESIAN_POINT('',(-2.,1.08506046498196E-13,24.650630285484));
#525=CARTESIAN_POINT('',(-2.,0.550000000000109,30.2806835711999));
#526=CARTESIAN_POINT('',(1.23374729972489E-16,0.550000000000108,24.650630285484));
#527=CARTESIAN_POINT('',(0.,1.07717535827298E-13,24.650630285484));
#528=CARTESIAN_POINT('',(-0.549999999999999,4.00000000000011,29.850630285484));
#529=CARTESIAN_POINT('',(-0.55,0.550000000000108,29.850630285484));
#530=CARTESIAN_POINT('',(-0.55,0.550000000000108,29.850630285484));
#531=CARTESIAN_POINT('',(-2.,0.550000000000109,29.850630285484));
#532=CARTESIAN_POINT('',(-2.,0.550000000000109,29.850630285484));
#533=CARTESIAN_POINT('',(-2.,-0.549999999999892,29.850630285484));
#534=CARTESIAN_POINT('',(-2.,-0.549999999999892,29.850630285484));
#535=CARTESIAN_POINT('',(-0.55,-0.549999999999892,29.850630285484));
#536=CARTESIAN_POINT('',(-0.55,-0.549999999999892,29.850630285484));
#537=CARTESIAN_POINT('',(0.549999999999998,-3.99999999999989,29.850630285484));
#538=CARTESIAN_POINT('',(0.55,-0.549999999999892,29.850630285484));
#539=CARTESIAN_POINT('',(0.55,-0.549999999999892,29.850630285484));
#540=CARTESIAN_POINT('',(2.,-0.549999999999892,29.850630285484));
#541=CARTESIAN_POINT('',(2.,-0.549999999999892,29.850630285484));
#542=CARTESIAN_POINT('',(2.,0.550000000000108,29.850630285484));
#543=CARTESIAN_POINT('',(2.,0.550000000000108,29.850630285484));
#544=CARTESIAN_POINT('',(0.55,0.550000000000108,29.850630285484));
#545=CARTESIAN_POINT('',(0.55,0.550000000000107,29.850630285484));
#546=CARTESIAN_POINT('',(2.99332590941915,1.07717535827298E-13,29.850630285484));
#547=CARTESIAN_POINT('',(0.55,-0.549999999999892,29.850630285484));
#548=CARTESIAN_POINT('',(0.549999999999998,-3.99999999999989,29.850630285484));
#549=CARTESIAN_POINT('',(2.,-0.549999999999892,29.850630285484));
#550=CARTESIAN_POINT('',(0.55,-0.549999999999892,29.850630285484));
#551=CARTESIAN_POINT('',(2.,0.550000000000108,29.850630285484));
#552=CARTESIAN_POINT('',(2.,-0.549999999999892,29.850630285484));
#553=CARTESIAN_POINT('',(0.55,0.550000000000108,29.850630285484));
#554=CARTESIAN_POINT('',(2.,0.550000000000108,29.850630285484));
#555=CARTESIAN_POINT('',(0.55,0.550000000000107,29.850630285484));
#556=CARTESIAN_POINT('',(-0.55,0.550000000000108,29.850630285484));
#557=CARTESIAN_POINT('',(-0.549999999999999,4.00000000000011,29.850630285484));
#558=CARTESIAN_POINT('',(-2.,0.550000000000109,29.850630285484));
#559=CARTESIAN_POINT('',(-0.55,0.550000000000108,29.850630285484));
#560=CARTESIAN_POINT('',(-2.,-0.549999999999892,29.850630285484));
#561=CARTESIAN_POINT('',(-2.,0.550000000000109,29.850630285484));
#562=CARTESIAN_POINT('',(-0.55,-0.549999999999892,29.850630285484));
#563=CARTESIAN_POINT('',(-2.,-0.549999999999892,29.850630285484));
#564=CARTESIAN_POINT('',(-0.55,-0.549999999999892,29.850630285484));
#565=CARTESIAN_POINT('',(0.,1.07717535827298E-13,28.350630285484));
#566=MECHANICAL_DESIGN_GEOMETRIC_PRESENTATION_REPRESENTATION('',(#24),#567);
#567=(
GEOMETRIC_REPRESENTATION_CONTEXT(3)
GLOBAL_UNCERTAINTY_ASSIGNED_CONTEXT((#568))
GLOBAL_UNIT_ASSIGNED_CONTEXT((#574,#570,#569))
REPRESENTATION_CONTEXT('5016785__Schraube_part_94444_stp',
'TOP_LEVEL_ASSEMBLY_PART')
);
#568=UNCERTAINTY_MEASURE_WITH_UNIT(LENGTH_MEASURE(2.E-5),#574,
'DISTANCE_ACCURACY_VALUE','Maximum Tolerance applied to model');
#569=(
NAMED_UNIT(*)
SI_UNIT($,.STERADIAN.)
SOLID_ANGLE_UNIT()
);
#570=(
CONVERSION_BASED_UNIT('DEGREE',#572)
NAMED_UNIT(#571)
PLANE_ANGLE_UNIT()
);
#571=DIMENSIONAL_EXPONENTS(0.,0.,0.,0.,0.,0.,0.);
#572=PLANE_ANGLE_MEASURE_WITH_UNIT(PLANE_ANGLE_MEASURE(0.0174532925),#573);
#573=(
NAMED_UNIT(*)
PLANE_ANGLE_UNIT()
SI_UNIT($,.RADIAN.)
);
#574=(
LENGTH_UNIT()
NAMED_UNIT(*)
SI_UNIT(.MILLI.,.METRE.)
);
ENDSEC;
END-ISO-10303-21;
