ISO-10303-21;
HEADER;
/* Generated by software containing ST-Developer
 * from STEP Tools, Inc. (www.steptools.com) 
 */
/* OPTION: using custom schema-name function */

FILE_DESCRIPTION(
/* description */ (''),
/* implementation_level */ '2;1');

FILE_NAME(
/* name */ 'Loetoese_M16x1.5.stp',
/* time_stamp */ '2016-09-21T15:45:44+02:00',
/* author */ (''),
/* organization */ (''),
/* preprocessor_version */ 'ST-DEVELOPER v16',
/* originating_system */ 'SIEMENS PLM Software NX 10.0',
/* authorisation */ '');

FILE_SCHEMA (('AUTOMOTIVE_DESIGN { 1 0 10303 214 3 1 1 1 }'));
ENDSEC;

DATA;
#10=SHAPE_REPRESENTATION_RELATIONSHIP('None',
'relationship between Loetoese_M16x1.5_stp-None and Loetoese_M16x1.5_s
tp-None',#22,#11);
#11=ADVANCED_BREP_SHAPE_REPRESENTATION('Loetoese_M16x1.5_stp-None',(#32),
#327);
#12=SHAPE_DEFINITION_REPRESENTATION(#13,#22);
#13=PRODUCT_DEFINITION_SHAPE('','',#14);
#14=PRODUCT_DEFINITION(' ','',#16,#15);
#15=PRODUCT_DEFINITION_CONTEXT('part definition',#21,'design');
#16=PRODUCT_DEFINITION_FORMATION_WITH_SPECIFIED_SOURCE(' ',' ',#18,
 .NOT_KNOWN.);
#17=PRODUCT_RELATED_PRODUCT_CATEGORY('part','',(#18));
#18=PRODUCT('5008254__PE-Kontakt_part_80905',
'5008254__PE-Kontakt_part_80905',' ',(#19));
#19=PRODUCT_CONTEXT(' ',#21,'mechanical');
#20=APPLICATION_PROTOCOL_DEFINITION('international standard',
'automotive_design',2010,#21);
#21=APPLICATION_CONTEXT(
'core data for automotive mechanical design processes');
#22=SHAPE_REPRESENTATION('Loetoese_M16x1.5_stp-None',(#202),#327);
#23=PRESENTATION_LAYER_ASSIGNMENT('1','Layer 1',(#32));
#24=STYLED_ITEM('',(#25),#32);
#25=PRESENTATION_STYLE_ASSIGNMENT((#26));
#26=SURFACE_STYLE_USAGE(.BOTH.,#27);
#27=SURFACE_SIDE_STYLE('',(#28));
#28=SURFACE_STYLE_FILL_AREA(#29);
#29=FILL_AREA_STYLE('',(#30));
#30=FILL_AREA_STYLE_COLOUR('',#31);
#31=COLOUR_RGB('Medium Gray',0.490196078431373,0.490196078431373,0.490196078431373);
#32=MANIFOLD_SOLID_BREP('',#33);
#33=CLOSED_SHELL('',(#59,#60,#61,#62,#63,#64,#65,#66,#67,#68));
#34=FACE_BOUND('',#85,.T.);
#35=FACE_BOUND('',#86,.T.);
#36=FACE_BOUND('',#88,.T.);
#37=FACE_BOUND('',#89,.T.);
#38=FACE_BOUND('',#90,.T.);
#39=FACE_BOUND('',#91,.T.);
#40=FACE_BOUND('',#92,.T.);
#41=FACE_BOUND('',#93,.T.);
#42=FACE_BOUND('',#94,.T.);
#43=FACE_BOUND('',#95,.T.);
#44=CYLINDRICAL_SURFACE('',#206,1.);
#45=CYLINDRICAL_SURFACE('',#210,0.999999999999991);
#46=CYLINDRICAL_SURFACE('',#214,0.749999999999985);
#47=CYLINDRICAL_SURFACE('',#217,10.5);
#48=CYLINDRICAL_SURFACE('',#220,7.99999999999999);
#49=CIRCLE('',#204,1.);
#50=CIRCLE('',#205,1.);
#51=CIRCLE('',#208,0.999999999999991);
#52=CIRCLE('',#209,0.999999999999991);
#53=CIRCLE('',#212,0.749999999999985);
#54=CIRCLE('',#213,0.749999999999985);
#55=CIRCLE('',#215,10.5);
#56=CIRCLE('',#216,10.5);
#57=CIRCLE('',#218,7.99999999999999);
#58=CIRCLE('',#219,7.99999999999999);
#59=ADVANCED_FACE('',(#74),#69,.T.);
#60=ADVANCED_FACE('',(#75),#44,.T.);
#61=ADVANCED_FACE('',(#76),#70,.T.);
#62=ADVANCED_FACE('',(#77),#45,.T.);
#63=ADVANCED_FACE('',(#78),#71,.T.);
#64=ADVANCED_FACE('',(#34,#35),#46,.F.);
#65=ADVANCED_FACE('',(#79),#47,.T.);
#66=ADVANCED_FACE('',(#36,#37),#48,.F.);
#67=ADVANCED_FACE('',(#38,#39,#40),#72,.F.);
#68=ADVANCED_FACE('',(#41,#42,#43),#73,.T.);
#69=PLANE('',#203);
#70=PLANE('',#207);
#71=PLANE('',#211);
#72=PLANE('',#221);
#73=PLANE('',#222);
#74=FACE_OUTER_BOUND('',#80,.T.);
#75=FACE_OUTER_BOUND('',#81,.T.);
#76=FACE_OUTER_BOUND('',#82,.T.);
#77=FACE_OUTER_BOUND('',#83,.T.);
#78=FACE_OUTER_BOUND('',#84,.T.);
#79=FACE_OUTER_BOUND('',#87,.T.);
#80=EDGE_LOOP('',(#96,#97,#98,#99));
#81=EDGE_LOOP('',(#100,#101,#102,#103));
#82=EDGE_LOOP('',(#104,#105,#106,#107));
#83=EDGE_LOOP('',(#108,#109,#110,#111));
#84=EDGE_LOOP('',(#112,#113,#114,#115));
#85=EDGE_LOOP('',(#116));
#86=EDGE_LOOP('',(#117));
#87=EDGE_LOOP('',(#118,#119,#120,#121));
#88=EDGE_LOOP('',(#122));
#89=EDGE_LOOP('',(#123));
#90=EDGE_LOOP('',(#124,#125,#126,#127,#128,#129));
#91=EDGE_LOOP('',(#130));
#92=EDGE_LOOP('',(#131));
#93=EDGE_LOOP('',(#132,#133,#134,#135,#136,#137));
#94=EDGE_LOOP('',(#138));
#95=EDGE_LOOP('',(#139));
#96=ORIENTED_EDGE('',*,*,#156,.F.);
#97=ORIENTED_EDGE('',*,*,#157,.F.);
#98=ORIENTED_EDGE('',*,*,#158,.T.);
#99=ORIENTED_EDGE('',*,*,#159,.T.);
#100=ORIENTED_EDGE('',*,*,#160,.F.);
#101=ORIENTED_EDGE('',*,*,#159,.F.);
#102=ORIENTED_EDGE('',*,*,#161,.T.);
#103=ORIENTED_EDGE('',*,*,#162,.T.);
#104=ORIENTED_EDGE('',*,*,#163,.F.);
#105=ORIENTED_EDGE('',*,*,#162,.F.);
#106=ORIENTED_EDGE('',*,*,#164,.T.);
#107=ORIENTED_EDGE('',*,*,#165,.T.);
#108=ORIENTED_EDGE('',*,*,#166,.F.);
#109=ORIENTED_EDGE('',*,*,#165,.F.);
#110=ORIENTED_EDGE('',*,*,#167,.T.);
#111=ORIENTED_EDGE('',*,*,#168,.T.);
#112=ORIENTED_EDGE('',*,*,#169,.F.);
#113=ORIENTED_EDGE('',*,*,#168,.F.);
#114=ORIENTED_EDGE('',*,*,#170,.T.);
#115=ORIENTED_EDGE('',*,*,#171,.T.);
#116=ORIENTED_EDGE('',*,*,#172,.T.);
#117=ORIENTED_EDGE('',*,*,#173,.F.);
#118=ORIENTED_EDGE('',*,*,#174,.F.);
#119=ORIENTED_EDGE('',*,*,#171,.F.);
#120=ORIENTED_EDGE('',*,*,#175,.T.);
#121=ORIENTED_EDGE('',*,*,#157,.T.);
#122=ORIENTED_EDGE('',*,*,#176,.T.);
#123=ORIENTED_EDGE('',*,*,#177,.F.);
#124=ORIENTED_EDGE('',*,*,#158,.F.);
#125=ORIENTED_EDGE('',*,*,#175,.F.);
#126=ORIENTED_EDGE('',*,*,#170,.F.);
#127=ORIENTED_EDGE('',*,*,#167,.F.);
#128=ORIENTED_EDGE('',*,*,#164,.F.);
#129=ORIENTED_EDGE('',*,*,#161,.F.);
#130=ORIENTED_EDGE('',*,*,#172,.F.);
#131=ORIENTED_EDGE('',*,*,#176,.F.);
#132=ORIENTED_EDGE('',*,*,#156,.T.);
#133=ORIENTED_EDGE('',*,*,#160,.T.);
#134=ORIENTED_EDGE('',*,*,#163,.T.);
#135=ORIENTED_EDGE('',*,*,#166,.T.);
#136=ORIENTED_EDGE('',*,*,#169,.T.);
#137=ORIENTED_EDGE('',*,*,#174,.T.);
#138=ORIENTED_EDGE('',*,*,#173,.T.);
#139=ORIENTED_EDGE('',*,*,#177,.T.);
#140=VERTEX_POINT('',#279);
#141=VERTEX_POINT('',#280);
#142=VERTEX_POINT('',#282);
#143=VERTEX_POINT('',#284);
#144=VERTEX_POINT('',#288);
#145=VERTEX_POINT('',#290);
#146=VERTEX_POINT('',#294);
#147=VERTEX_POINT('',#296);
#148=VERTEX_POINT('',#300);
#149=VERTEX_POINT('',#302);
#150=VERTEX_POINT('',#306);
#151=VERTEX_POINT('',#308);
#152=VERTEX_POINT('',#312);
#153=VERTEX_POINT('',#314);
#154=VERTEX_POINT('',#320);
#155=VERTEX_POINT('',#322);
#156=EDGE_CURVE('',#140,#141,#178,.T.);
#157=EDGE_CURVE('',#142,#140,#179,.T.);
#158=EDGE_CURVE('',#142,#143,#180,.T.);
#159=EDGE_CURVE('',#143,#141,#181,.T.);
#160=EDGE_CURVE('',#141,#144,#49,.T.);
#161=EDGE_CURVE('',#143,#145,#50,.T.);
#162=EDGE_CURVE('',#145,#144,#182,.T.);
#163=EDGE_CURVE('',#144,#146,#183,.T.);
#164=EDGE_CURVE('',#145,#147,#184,.T.);
#165=EDGE_CURVE('',#147,#146,#185,.T.);
#166=EDGE_CURVE('',#146,#148,#51,.T.);
#167=EDGE_CURVE('',#147,#149,#52,.T.);
#168=EDGE_CURVE('',#149,#148,#186,.T.);
#169=EDGE_CURVE('',#148,#150,#187,.T.);
#170=EDGE_CURVE('',#149,#151,#188,.T.);
#171=EDGE_CURVE('',#151,#150,#189,.T.);
#172=EDGE_CURVE('',#152,#152,#53,.T.);
#173=EDGE_CURVE('',#153,#153,#54,.T.);
#174=EDGE_CURVE('',#150,#140,#55,.T.);
#175=EDGE_CURVE('',#151,#142,#56,.T.);
#176=EDGE_CURVE('',#154,#154,#57,.T.);
#177=EDGE_CURVE('',#155,#155,#58,.T.);
#178=LINE('',#278,#190);
#179=LINE('',#281,#191);
#180=LINE('',#283,#192);
#181=LINE('',#285,#193);
#182=LINE('',#291,#194);
#183=LINE('',#293,#195);
#184=LINE('',#295,#196);
#185=LINE('',#297,#197);
#186=LINE('',#303,#198);
#187=LINE('',#305,#199);
#188=LINE('',#307,#200);
#189=LINE('',#309,#201);
#190=VECTOR('',#225,1.);
#191=VECTOR('',#226,1.);
#192=VECTOR('',#227,1.);
#193=VECTOR('',#228,1.);
#194=VECTOR('',#235,1.);
#195=VECTOR('',#238,1.);
#196=VECTOR('',#239,1.);
#197=VECTOR('',#240,1.);
#198=VECTOR('',#247,1.);
#199=VECTOR('',#250,1.);
#200=VECTOR('',#251,1.);
#201=VECTOR('',#252,1.);
#202=AXIS2_PLACEMENT_3D('',#277,#223,#224);
#203=AXIS2_PLACEMENT_3D('',#286,#229,#230);
#204=AXIS2_PLACEMENT_3D('',#287,#231,#232);
#205=AXIS2_PLACEMENT_3D('',#289,#233,#234);
#206=AXIS2_PLACEMENT_3D('',#292,#236,#237);
#207=AXIS2_PLACEMENT_3D('',#298,#241,#242);
#208=AXIS2_PLACEMENT_3D('',#299,#243,#244);
#209=AXIS2_PLACEMENT_3D('',#301,#245,#246);
#210=AXIS2_PLACEMENT_3D('',#304,#248,#249);
#211=AXIS2_PLACEMENT_3D('',#310,#253,#254);
#212=AXIS2_PLACEMENT_3D('',#311,#255,#256);
#213=AXIS2_PLACEMENT_3D('',#313,#257,#258);
#214=AXIS2_PLACEMENT_3D('',#315,#259,#260);
#215=AXIS2_PLACEMENT_3D('',#316,#261,#262);
#216=AXIS2_PLACEMENT_3D('',#317,#263,#264);
#217=AXIS2_PLACEMENT_3D('',#318,#265,#266);
#218=AXIS2_PLACEMENT_3D('',#319,#267,#268);
#219=AXIS2_PLACEMENT_3D('',#321,#269,#270);
#220=AXIS2_PLACEMENT_3D('',#323,#271,#272);
#221=AXIS2_PLACEMENT_3D('',#324,#273,#274);
#222=AXIS2_PLACEMENT_3D('',#325,#275,#276);
#223=DIRECTION('',(0.,0.,1.));
#224=DIRECTION('',(1.,0.,0.));
#225=DIRECTION('',(1.,-6.43803716076488E-14,0.));
#226=DIRECTION('',(0.,0.,-1.));
#227=DIRECTION('',(1.,-6.43803716076488E-14,0.));
#228=DIRECTION('',(0.,0.,-1.));
#229=DIRECTION('',(6.43803716076488E-14,1.,0.));
#230=DIRECTION('',(-1.,6.43790576404513E-14,0.));
#231=DIRECTION('',(0.,0.,-1.));
#232=DIRECTION('',(-5.75234304633909E-10,1.,0.));
#233=DIRECTION('',(0.,0.,-1.));
#234=DIRECTION('',(-5.75234304633909E-10,1.,0.));
#235=DIRECTION('',(0.,0.,-1.));
#236=DIRECTION('',(0.,0.,-1.));
#237=DIRECTION('',(-1.,0.,0.));
#238=DIRECTION('',(-1.5957473396036E-10,-1.,0.));
#239=DIRECTION('',(-1.59594560208186E-10,-1.,0.));
#240=DIRECTION('',(0.,0.,-1.));
#241=DIRECTION('',(1.,-1.5957473396036E-10,0.));
#242=DIRECTION('',(1.59574728431089E-10,1.,0.));
#243=DIRECTION('',(0.,0.,-1.));
#244=DIRECTION('',(0.,-1.,0.));
#245=DIRECTION('',(0.,0.,-1.));
#246=DIRECTION('',(0.,-1.,0.));
#247=DIRECTION('',(0.,0.,-1.));
#248=DIRECTION('',(0.,0.,-1.));
#249=DIRECTION('',(-0.999999999999996,0.,0.));
#250=DIRECTION('',(-1.,0.,0.));
#251=DIRECTION('',(-1.,0.,0.));
#252=DIRECTION('',(0.,0.,-1.));
#253=DIRECTION('',(0.,-1.,0.));
#254=DIRECTION('',(0.,0.,-1.));
#255=DIRECTION('',(0.,0.,1.));
#256=DIRECTION('',(1.,0.,0.));
#257=DIRECTION('',(0.,0.,1.));
#258=DIRECTION('',(1.,0.,0.));
#259=DIRECTION('',(0.,0.,-1.));
#260=DIRECTION('',(-1.,0.,0.));
#261=DIRECTION('',(0.,0.,-1.));
#262=DIRECTION('',(1.,0.,0.));
#263=DIRECTION('',(0.,0.,-1.));
#264=DIRECTION('',(1.,0.,0.));
#265=DIRECTION('',(0.,0.,-1.));
#266=DIRECTION('',(-1.,0.,0.));
#267=DIRECTION('',(0.,0.,1.));
#268=DIRECTION('',(1.,0.,0.));
#269=DIRECTION('',(0.,0.,1.));
#270=DIRECTION('',(1.,0.,0.));
#271=DIRECTION('',(0.,0.,-1.));
#272=DIRECTION('',(-1.,0.,0.));
#273=DIRECTION('',(0.,0.,-1.));
#274=DIRECTION('',(-1.,0.,0.));
#275=DIRECTION('',(0.,0.,-1.));
#276=DIRECTION('',(-1.,0.,0.));
#277=CARTESIAN_POINT('',(0.,0.,0.));
#278=CARTESIAN_POINT('',(60.2220350232646,52.39999999649,0.));
#279=CARTESIAN_POINT('',(60.2220350232646,52.39999999649,0.));
#280=CARTESIAN_POINT('',(71.0000000002217,52.3999999964893,0.));
#281=CARTESIAN_POINT('',(60.2220350232646,52.39999999649,0.8));
#282=CARTESIAN_POINT('',(60.2220350232646,52.39999999649,0.8));
#283=CARTESIAN_POINT('',(60.2220350232646,52.39999999649,0.8));
#284=CARTESIAN_POINT('',(71.0000000002217,52.3999999964893,0.8));
#285=CARTESIAN_POINT('',(71.0000000002217,52.3999999964893,0.8));
#286=CARTESIAN_POINT('',(60.2220350232646,52.39999999649,0.8));
#287=CARTESIAN_POINT('',(71.0000000002216,51.39999999649,0.));
#288=CARTESIAN_POINT('',(72.0000000002216,51.3999999963317,0.));
#289=CARTESIAN_POINT('',(71.0000000002216,51.39999999649,0.8));
#290=CARTESIAN_POINT('',(72.0000000002216,51.3999999963317,0.8));
#291=CARTESIAN_POINT('',(72.0000000002216,51.3999999963317,0.8));
#292=CARTESIAN_POINT('',(71.0000000002216,51.39999999649,0.8));
#293=CARTESIAN_POINT('',(72.,50.,0.));
#294=CARTESIAN_POINT('',(71.9999999997766,48.5999999963297,0.));
#295=CARTESIAN_POINT('',(72.0000000002234,51.3999999963304,0.8));
#296=CARTESIAN_POINT('',(71.9999999997766,48.5999999963297,0.8));
#297=CARTESIAN_POINT('',(71.9999999997766,48.5999999963297,0.8));
#298=CARTESIAN_POINT('',(72.,50.,0.8));
#299=CARTESIAN_POINT('',(70.9999999997766,48.5999999964892,0.));
#300=CARTESIAN_POINT('',(70.9999999997766,47.5999999964893,0.));
#301=CARTESIAN_POINT('',(70.9999999997766,48.5999999964892,0.8));
#302=CARTESIAN_POINT('',(70.9999999997766,47.5999999964893,0.8));
#303=CARTESIAN_POINT('',(70.9999999997766,47.5999999964893,0.8));
#304=CARTESIAN_POINT('',(70.9999999997766,48.5999999964892,0.8));
#305=CARTESIAN_POINT('',(70.9999999997766,47.5999999964893,0.));
#306=CARTESIAN_POINT('',(60.2220350216162,47.5999999964893,0.));
#307=CARTESIAN_POINT('',(70.9999999997766,47.5999999964893,0.8));
#308=CARTESIAN_POINT('',(60.2220350216162,47.5999999964893,0.8));
#309=CARTESIAN_POINT('',(60.2220350216162,47.5999999964893,0.8));
#310=CARTESIAN_POINT('',(70.9999999997766,47.5999999964893,0.8));
#311=CARTESIAN_POINT('',(70.0000000000005,49.9999999999994,0.8));
#312=CARTESIAN_POINT('',(70.7500000000005,49.9999999999994,0.8));
#313=CARTESIAN_POINT('',(70.0000000000005,49.9999999999994,0.));
#314=CARTESIAN_POINT('',(70.7500000000005,49.9999999999994,0.));
#315=CARTESIAN_POINT('',(70.0000000000005,49.9999999999994,0.8));
#316=CARTESIAN_POINT('',(50.0000000000001,50.,0.));
#317=CARTESIAN_POINT('',(50.0000000000001,50.,0.8));
#318=CARTESIAN_POINT('',(50.0000000000001,50.,0.8));
#319=CARTESIAN_POINT('',(50.0000000000001,50.,0.8));
#320=CARTESIAN_POINT('',(58.0000000000001,50.,0.8));
#321=CARTESIAN_POINT('',(50.0000000000001,50.,0.));
#322=CARTESIAN_POINT('',(58.0000000000001,50.,0.));
#323=CARTESIAN_POINT('',(50.0000000000001,50.,0.8));
#324=CARTESIAN_POINT('',(71.0000000002216,51.39999999649,0.8));
#325=CARTESIAN_POINT('',(71.0000000002216,51.39999999649,0.));
#326=MECHANICAL_DESIGN_GEOMETRIC_PRESENTATION_REPRESENTATION('',(#24),#327);
#327=(
GEOMETRIC_REPRESENTATION_CONTEXT(3)
GLOBAL_UNCERTAINTY_ASSIGNED_CONTEXT((#328))
GLOBAL_UNIT_ASSIGNED_CONTEXT((#334,#330,#329))
REPRESENTATION_CONTEXT('Loetoese_M16x1','TOP_LEVEL_ASSEMBLY_PART')
);
#328=UNCERTAINTY_MEASURE_WITH_UNIT(LENGTH_MEASURE(2.E-5),#334,
'DISTANCE_ACCURACY_VALUE','Maximum Tolerance applied to model');
#329=(
NAMED_UNIT(*)
SI_UNIT($,.STERADIAN.)
SOLID_ANGLE_UNIT()
);
#330=(
CONVERSION_BASED_UNIT('DEGREE',#332)
NAMED_UNIT(#331)
PLANE_ANGLE_UNIT()
);
#331=DIMENSIONAL_EXPONENTS(0.,0.,0.,0.,0.,0.,0.);
#332=PLANE_ANGLE_MEASURE_WITH_UNIT(PLANE_ANGLE_MEASURE(0.0174532925),#333);
#333=(
NAMED_UNIT(*)
PLANE_ANGLE_UNIT()
SI_UNIT($,.RADIAN.)
);
#334=(
LENGTH_UNIT()
NAMED_UNIT(*)
SI_UNIT(.MILLI.,.METRE.)
);
ENDSEC;
END-ISO-10303-21;
