ISO-10303-21;
HEADER;
/* Generated by software containing ST-Developer
 * from STEP Tools, Inc. (www.steptools.com) 
 */
/* OPTION: using custom schema-name function */

FILE_DESCRIPTION(
/* description */ (''),
/* implementation_level */ '2;1');

FILE_NAME(
/* name */ '5013470___Gleitring_part_121013_stp.stp',
/* time_stamp */ '2016-09-09T09:37:25+02:00',
/* author */ (''),
/* organization */ (''),
/* preprocessor_version */ 'ST-DEVELOPER v16',
/* originating_system */ 'SIEMENS PLM Software NX 10.0',
/* authorisation */ '');

FILE_SCHEMA (('AUTOMOTIVE_DESIGN { 1 0 10303 214 3 1 1 1 }'));
ENDSEC;

DATA;
#10=SHAPE_REPRESENTATION_RELATIONSHIP('None',
'relationship between 5013470___Gleitring_part_121013_stp-None and 501
3470___Gleitring_part_121013_stp-None',#22,#11);
#11=ADVANCED_BREP_SHAPE_REPRESENTATION(
'5013470___Gleitring_part_121013_stp-None',(#32),#471);
#12=SHAPE_DEFINITION_REPRESENTATION(#13,#22);
#13=PRODUCT_DEFINITION_SHAPE('','',#14);
#14=PRODUCT_DEFINITION(' ','',#16,#15);
#15=PRODUCT_DEFINITION_CONTEXT('part definition',#21,'design');
#16=PRODUCT_DEFINITION_FORMATION_WITH_SPECIFIED_SOURCE(' ',' ',#18,
 .NOT_KNOWN.);
#17=PRODUCT_RELATED_PRODUCT_CATEGORY('part','',(#18));
#18=PRODUCT('5013470___Gleitring_part_121013_stp',
'5013470___Gleitring_part_121013_stp',' ',(#19));
#19=PRODUCT_CONTEXT(' ',#21,'mechanical');
#20=APPLICATION_PROTOCOL_DEFINITION('international standard',
'automotive_design',2010,#21);
#21=APPLICATION_CONTEXT(
'core data for automotive mechanical design processes');
#22=SHAPE_REPRESENTATION('5013470___Gleitring_part_121013_stp-None',(#274),
#471);
#23=PRESENTATION_LAYER_ASSIGNMENT('1','Layer 1',(#32));
#24=STYLED_ITEM('',(#25),#32);
#25=PRESENTATION_STYLE_ASSIGNMENT((#26));
#26=SURFACE_STYLE_USAGE(.BOTH.,#27);
#27=SURFACE_SIDE_STYLE('',(#28));
#28=SURFACE_STYLE_FILL_AREA(#29);
#29=FILL_AREA_STYLE('',(#30));
#30=FILL_AREA_STYLE_COLOUR('',#31);
#31=COLOUR_RGB('Medium Gray',0.490196078431373,0.490196078431373,0.490196078431373);
#32=MANIFOLD_SOLID_BREP('',#33);
#33=CLOSED_SHELL('',(#46,#47,#48,#49,#50,#51,#52,#53,#54,#55,#56,#57,#58,
#59));
#34=TOROIDAL_SURFACE('',#305,5.10510354332851,0.1);
#35=TOROIDAL_SURFACE('',#306,5.10510354332851,0.1);
#36=TOROIDAL_SURFACE('',#307,5.50275086578252,0.25);
#37=TOROIDAL_SURFACE('',#308,5.50275086578252,0.25);
#38=CONICAL_SURFACE('',#282,5.2,3.);
#39=CONICAL_SURFACE('',#292,5.2,3.);
#40=PLANE('',#279);
#41=PLANE('',#285);
#42=PLANE('',#289);
#43=PLANE('',#294);
#44=PLANE('',#299);
#45=PLANE('',#304);
#46=ADVANCED_FACE('',(#62),#60,.F.);
#47=ADVANCED_FACE('',(#63),#40,.T.);
#48=ADVANCED_FACE('',(#64),#38,.T.);
#49=ADVANCED_FACE('',(#65),#41,.T.);
#50=ADVANCED_FACE('',(#66),#61,.T.);
#51=ADVANCED_FACE('',(#67),#42,.T.);
#52=ADVANCED_FACE('',(#68),#39,.T.);
#53=ADVANCED_FACE('',(#69),#43,.T.);
#54=ADVANCED_FACE('',(#70),#44,.T.);
#55=ADVANCED_FACE('',(#71),#45,.F.);
#56=ADVANCED_FACE('',(#72),#34,.T.);
#57=ADVANCED_FACE('',(#73),#35,.T.);
#58=ADVANCED_FACE('',(#74),#36,.F.);
#59=ADVANCED_FACE('',(#75),#37,.F.);
#60=CYLINDRICAL_SURFACE('',#277,4.5);
#61=CYLINDRICAL_SURFACE('',#287,6.1);
#62=FACE_OUTER_BOUND('',#76,.T.);
#63=FACE_OUTER_BOUND('',#77,.T.);
#64=FACE_OUTER_BOUND('',#78,.T.);
#65=FACE_OUTER_BOUND('',#79,.T.);
#66=FACE_OUTER_BOUND('',#80,.T.);
#67=FACE_OUTER_BOUND('',#81,.T.);
#68=FACE_OUTER_BOUND('',#82,.T.);
#69=FACE_OUTER_BOUND('',#83,.T.);
#70=FACE_OUTER_BOUND('',#84,.T.);
#71=FACE_OUTER_BOUND('',#85,.T.);
#72=FACE_OUTER_BOUND('',#86,.T.);
#73=FACE_OUTER_BOUND('',#87,.T.);
#74=FACE_OUTER_BOUND('',#88,.T.);
#75=FACE_OUTER_BOUND('',#89,.T.);
#76=EDGE_LOOP('',(#122,#123,#124,#125));
#77=EDGE_LOOP('',(#126,#127,#128,#129));
#78=EDGE_LOOP('',(#130,#131,#132,#133));
#79=EDGE_LOOP('',(#134,#135,#136,#137));
#80=EDGE_LOOP('',(#138,#139,#140,#141));
#81=EDGE_LOOP('',(#142,#143,#144,#145));
#82=EDGE_LOOP('',(#146,#147,#148,#149));
#83=EDGE_LOOP('',(#150,#151,#152,#153));
#84=EDGE_LOOP('',(#154,#155,#156,#157,#158,#159,#160,#161,#162,#163,#164,
#165));
#85=EDGE_LOOP('',(#166,#167,#168,#169,#170,#171,#172,#173,#174,#175,#176,
#177));
#86=EDGE_LOOP('',(#178,#179,#180,#181));
#87=EDGE_LOOP('',(#182,#183,#184,#185));
#88=EDGE_LOOP('',(#186,#187,#188,#189));
#89=EDGE_LOOP('',(#190,#191,#192,#193));
#90=LINE('',#399,#106);
#91=LINE('',#403,#107);
#92=LINE('',#405,#108);
#93=LINE('',#409,#109);
#94=LINE('',#411,#110);
#95=LINE('',#416,#111);
#96=LINE('',#420,#112);
#97=LINE('',#425,#113);
#98=LINE('',#432,#114);
#99=LINE('',#433,#115);
#100=LINE('',#435,#116);
#101=LINE('',#439,#117);
#102=LINE('',#441,#118);
#103=LINE('',#446,#119);
#104=LINE('',#450,#120);
#105=LINE('',#454,#121);
#106=VECTOR('',#313,1.);
#107=VECTOR('',#316,1.);
#108=VECTOR('',#319,1.);
#109=VECTOR('',#322,1.);
#110=VECTOR('',#325,1.);
#111=VECTOR('',#328,1.);
#112=VECTOR('',#333,1.);
#113=VECTOR('',#336,1.);
#114=VECTOR('',#343,1.);
#115=VECTOR('',#344,1.);
#116=VECTOR('',#347,1.);
#117=VECTOR('',#350,1.);
#118=VECTOR('',#353,1.);
#119=VECTOR('',#356,1.);
#120=VECTOR('',#361,1.);
#121=VECTOR('',#364,1.);
#122=ORIENTED_EDGE('',*,*,#218,.T.);
#123=ORIENTED_EDGE('',*,*,#219,.F.);
#124=ORIENTED_EDGE('',*,*,#220,.F.);
#125=ORIENTED_EDGE('',*,*,#221,.T.);
#126=ORIENTED_EDGE('',*,*,#222,.T.);
#127=ORIENTED_EDGE('',*,*,#223,.T.);
#128=ORIENTED_EDGE('',*,*,#224,.F.);
#129=ORIENTED_EDGE('',*,*,#218,.F.);
#130=ORIENTED_EDGE('',*,*,#225,.F.);
#131=ORIENTED_EDGE('',*,*,#226,.T.);
#132=ORIENTED_EDGE('',*,*,#227,.T.);
#133=ORIENTED_EDGE('',*,*,#228,.T.);
#134=ORIENTED_EDGE('',*,*,#229,.F.);
#135=ORIENTED_EDGE('',*,*,#230,.T.);
#136=ORIENTED_EDGE('',*,*,#231,.T.);
#137=ORIENTED_EDGE('',*,*,#232,.T.);
#138=ORIENTED_EDGE('',*,*,#233,.T.);
#139=ORIENTED_EDGE('',*,*,#234,.F.);
#140=ORIENTED_EDGE('',*,*,#232,.F.);
#141=ORIENTED_EDGE('',*,*,#235,.T.);
#142=ORIENTED_EDGE('',*,*,#236,.T.);
#143=ORIENTED_EDGE('',*,*,#237,.T.);
#144=ORIENTED_EDGE('',*,*,#238,.F.);
#145=ORIENTED_EDGE('',*,*,#233,.F.);
#146=ORIENTED_EDGE('',*,*,#239,.T.);
#147=ORIENTED_EDGE('',*,*,#240,.T.);
#148=ORIENTED_EDGE('',*,*,#241,.F.);
#149=ORIENTED_EDGE('',*,*,#242,.T.);
#150=ORIENTED_EDGE('',*,*,#243,.F.);
#151=ORIENTED_EDGE('',*,*,#244,.T.);
#152=ORIENTED_EDGE('',*,*,#245,.T.);
#153=ORIENTED_EDGE('',*,*,#220,.T.);
#154=ORIENTED_EDGE('',*,*,#245,.F.);
#155=ORIENTED_EDGE('',*,*,#246,.T.);
#156=ORIENTED_EDGE('',*,*,#239,.F.);
#157=ORIENTED_EDGE('',*,*,#247,.T.);
#158=ORIENTED_EDGE('',*,*,#236,.F.);
#159=ORIENTED_EDGE('',*,*,#235,.F.);
#160=ORIENTED_EDGE('',*,*,#231,.F.);
#161=ORIENTED_EDGE('',*,*,#248,.T.);
#162=ORIENTED_EDGE('',*,*,#227,.F.);
#163=ORIENTED_EDGE('',*,*,#249,.T.);
#164=ORIENTED_EDGE('',*,*,#222,.F.);
#165=ORIENTED_EDGE('',*,*,#221,.F.);
#166=ORIENTED_EDGE('',*,*,#241,.T.);
#167=ORIENTED_EDGE('',*,*,#250,.T.);
#168=ORIENTED_EDGE('',*,*,#243,.T.);
#169=ORIENTED_EDGE('',*,*,#219,.T.);
#170=ORIENTED_EDGE('',*,*,#224,.T.);
#171=ORIENTED_EDGE('',*,*,#251,.T.);
#172=ORIENTED_EDGE('',*,*,#225,.T.);
#173=ORIENTED_EDGE('',*,*,#252,.T.);
#174=ORIENTED_EDGE('',*,*,#229,.T.);
#175=ORIENTED_EDGE('',*,*,#234,.T.);
#176=ORIENTED_EDGE('',*,*,#238,.T.);
#177=ORIENTED_EDGE('',*,*,#253,.T.);
#178=ORIENTED_EDGE('',*,*,#246,.F.);
#179=ORIENTED_EDGE('',*,*,#244,.F.);
#180=ORIENTED_EDGE('',*,*,#250,.F.);
#181=ORIENTED_EDGE('',*,*,#240,.F.);
#182=ORIENTED_EDGE('',*,*,#249,.F.);
#183=ORIENTED_EDGE('',*,*,#226,.F.);
#184=ORIENTED_EDGE('',*,*,#251,.F.);
#185=ORIENTED_EDGE('',*,*,#223,.F.);
#186=ORIENTED_EDGE('',*,*,#248,.F.);
#187=ORIENTED_EDGE('',*,*,#230,.F.);
#188=ORIENTED_EDGE('',*,*,#252,.F.);
#189=ORIENTED_EDGE('',*,*,#228,.F.);
#190=ORIENTED_EDGE('',*,*,#247,.F.);
#191=ORIENTED_EDGE('',*,*,#242,.F.);
#192=ORIENTED_EDGE('',*,*,#253,.F.);
#193=ORIENTED_EDGE('',*,*,#237,.F.);
#194=VERTEX_POINT('',#397);
#195=VERTEX_POINT('',#398);
#196=VERTEX_POINT('',#400);
#197=VERTEX_POINT('',#402);
#198=VERTEX_POINT('',#406);
#199=VERTEX_POINT('',#408);
#200=VERTEX_POINT('',#412);
#201=VERTEX_POINT('',#413);
#202=VERTEX_POINT('',#415);
#203=VERTEX_POINT('',#417);
#204=VERTEX_POINT('',#421);
#205=VERTEX_POINT('',#422);
#206=VERTEX_POINT('',#424);
#207=VERTEX_POINT('',#426);
#208=VERTEX_POINT('',#430);
#209=VERTEX_POINT('',#431);
#210=VERTEX_POINT('',#436);
#211=VERTEX_POINT('',#438);
#212=VERTEX_POINT('',#442);
#213=VERTEX_POINT('',#443);
#214=VERTEX_POINT('',#445);
#215=VERTEX_POINT('',#447);
#216=VERTEX_POINT('',#451);
#217=VERTEX_POINT('',#453);
#218=EDGE_CURVE('',#194,#195,#254,.T.);
#219=EDGE_CURVE('',#196,#195,#90,.T.);
#220=EDGE_CURVE('',#197,#196,#255,.T.);
#221=EDGE_CURVE('',#197,#194,#91,.T.);
#222=EDGE_CURVE('',#194,#198,#92,.T.);
#223=EDGE_CURVE('',#198,#199,#256,.T.);
#224=EDGE_CURVE('',#195,#199,#93,.T.);
#225=EDGE_CURVE('',#200,#201,#94,.T.);
#226=EDGE_CURVE('',#200,#202,#257,.T.);
#227=EDGE_CURVE('',#202,#203,#95,.T.);
#228=EDGE_CURVE('',#203,#201,#258,.T.);
#229=EDGE_CURVE('',#204,#205,#96,.T.);
#230=EDGE_CURVE('',#204,#206,#259,.T.);
#231=EDGE_CURVE('',#206,#207,#97,.T.);
#232=EDGE_CURVE('',#207,#205,#260,.T.);
#233=EDGE_CURVE('',#208,#209,#261,.T.);
#234=EDGE_CURVE('',#205,#209,#98,.T.);
#235=EDGE_CURVE('',#207,#208,#99,.T.);
#236=EDGE_CURVE('',#208,#210,#100,.T.);
#237=EDGE_CURVE('',#210,#211,#262,.T.);
#238=EDGE_CURVE('',#209,#211,#101,.T.);
#239=EDGE_CURVE('',#212,#213,#102,.T.);
#240=EDGE_CURVE('',#213,#214,#263,.T.);
#241=EDGE_CURVE('',#215,#214,#103,.T.);
#242=EDGE_CURVE('',#215,#212,#264,.T.);
#243=EDGE_CURVE('',#216,#196,#104,.T.);
#244=EDGE_CURVE('',#216,#217,#265,.T.);
#245=EDGE_CURVE('',#217,#197,#105,.T.);
#246=EDGE_CURVE('',#217,#213,#266,.T.);
#247=EDGE_CURVE('',#212,#210,#267,.T.);
#248=EDGE_CURVE('',#206,#203,#268,.T.);
#249=EDGE_CURVE('',#202,#198,#269,.T.);
#250=EDGE_CURVE('',#214,#216,#270,.T.);
#251=EDGE_CURVE('',#199,#200,#271,.T.);
#252=EDGE_CURVE('',#201,#204,#272,.T.);
#253=EDGE_CURVE('',#211,#215,#273,.T.);
#254=CIRCLE('',#275,4.5);
#255=CIRCLE('',#276,4.5);
#256=CIRCLE('',#278,5.10510354332851);
#257=CIRCLE('',#280,5.20496649680397);
#258=CIRCLE('',#281,5.25309348209388);
#259=CIRCLE('',#283,5.50275086578252);
#260=CIRCLE('',#284,6.1);
#261=CIRCLE('',#286,6.1);
#262=CIRCLE('',#288,5.50275086578252);
#263=CIRCLE('',#290,5.20496649680397);
#264=CIRCLE('',#291,5.25309348209388);
#265=CIRCLE('',#293,5.10510354332851);
#266=CIRCLE('',#295,0.1);
#267=CIRCLE('',#296,0.25);
#268=CIRCLE('',#297,0.25);
#269=CIRCLE('',#298,0.1);
#270=CIRCLE('',#300,0.1);
#271=CIRCLE('',#301,0.1);
#272=CIRCLE('',#302,0.25);
#273=CIRCLE('',#303,0.25);
#274=AXIS2_PLACEMENT_3D('',#395,#309,#310);
#275=AXIS2_PLACEMENT_3D('',#396,#311,#312);
#276=AXIS2_PLACEMENT_3D('',#401,#314,#315);
#277=AXIS2_PLACEMENT_3D('',#404,#317,#318);
#278=AXIS2_PLACEMENT_3D('',#407,#320,#321);
#279=AXIS2_PLACEMENT_3D('',#410,#323,#324);
#280=AXIS2_PLACEMENT_3D('',#414,#326,#327);
#281=AXIS2_PLACEMENT_3D('',#418,#329,#330);
#282=AXIS2_PLACEMENT_3D('',#419,#331,#332);
#283=AXIS2_PLACEMENT_3D('',#423,#334,#335);
#284=AXIS2_PLACEMENT_3D('',#427,#337,#338);
#285=AXIS2_PLACEMENT_3D('',#428,#339,#340);
#286=AXIS2_PLACEMENT_3D('',#429,#341,#342);
#287=AXIS2_PLACEMENT_3D('',#434,#345,#346);
#288=AXIS2_PLACEMENT_3D('',#437,#348,#349);
#289=AXIS2_PLACEMENT_3D('',#440,#351,#352);
#290=AXIS2_PLACEMENT_3D('',#444,#354,#355);
#291=AXIS2_PLACEMENT_3D('',#448,#357,#358);
#292=AXIS2_PLACEMENT_3D('',#449,#359,#360);
#293=AXIS2_PLACEMENT_3D('',#452,#362,#363);
#294=AXIS2_PLACEMENT_3D('',#455,#365,#366);
#295=AXIS2_PLACEMENT_3D('',#456,#367,#368);
#296=AXIS2_PLACEMENT_3D('',#457,#369,#370);
#297=AXIS2_PLACEMENT_3D('',#458,#371,#372);
#298=AXIS2_PLACEMENT_3D('',#459,#373,#374);
#299=AXIS2_PLACEMENT_3D('',#460,#375,#376);
#300=AXIS2_PLACEMENT_3D('',#461,#377,#378);
#301=AXIS2_PLACEMENT_3D('',#462,#379,#380);
#302=AXIS2_PLACEMENT_3D('',#463,#381,#382);
#303=AXIS2_PLACEMENT_3D('',#464,#383,#384);
#304=AXIS2_PLACEMENT_3D('',#465,#385,#386);
#305=AXIS2_PLACEMENT_3D('',#466,#387,#388);
#306=AXIS2_PLACEMENT_3D('',#467,#389,#390);
#307=AXIS2_PLACEMENT_3D('',#468,#391,#392);
#308=AXIS2_PLACEMENT_3D('',#469,#393,#394);
#309=DIRECTION('',(0.,0.,1.));
#310=DIRECTION('',(1.,0.,0.));
#311=DIRECTION('',(0.,-1.,0.));
#312=DIRECTION('',(0.,0.,-1.));
#313=DIRECTION('',(0.,-1.,0.));
#314=DIRECTION('',(0.,-1.,0.));
#315=DIRECTION('',(0.,0.,-1.));
#316=DIRECTION('',(0.,-1.,0.));
#317=DIRECTION('',(0.,-1.,0.));
#318=DIRECTION('',(0.,0.,1.));
#319=DIRECTION('',(0.819152044288989,6.46315692462367E-17,0.57357643635105));
#320=DIRECTION('',(0.,-1.,0.));
#321=DIRECTION('',(0.,0.,-1.));
#322=DIRECTION('',(1.,6.46315692462367E-17,0.));
#323=DIRECTION('',(0.,-1.,0.));
#324=DIRECTION('',(0.,0.,1.));
#325=DIRECTION('',(0.0523359562429438,0.998629534754574,0.));
#326=DIRECTION('',(0.,1.,0.));
#327=DIRECTION('',(0.,0.,-1.));
#328=DIRECTION('',(0.0428711055462265,0.998629534754574,0.0300186712748522));
#329=DIRECTION('',(0.,-1.,0.));
#330=DIRECTION('',(0.,0.,1.));
#331=DIRECTION('',(0.,1.,0.));
#332=DIRECTION('',(0.,-3.92673515933326E-19,1.));
#333=DIRECTION('',(1.,2.4093381610789E-16,0.));
#334=DIRECTION('',(0.,1.,0.));
#335=DIRECTION('',(0.,0.,-1.));
#336=DIRECTION('',(0.819152044288989,2.4093381610789E-16,0.57357643635105));
#337=DIRECTION('',(0.,-1.,0.));
#338=DIRECTION('',(0.,0.,-1.));
#339=DIRECTION('',(0.,-1.,0.));
#340=DIRECTION('',(0.,0.,1.));
#341=DIRECTION('',(0.,-1.,0.));
#342=DIRECTION('',(0.,0.,-1.));
#343=DIRECTION('',(0.,1.,0.));
#344=DIRECTION('',(0.,1.,0.));
#345=DIRECTION('',(0.,-1.,0.));
#346=DIRECTION('',(0.,0.,1.));
#347=DIRECTION('',(-0.819152044288989,0.,-0.57357643635105));
#348=DIRECTION('',(0.,-1.,0.));
#349=DIRECTION('',(0.,0.,1.));
#350=DIRECTION('',(-1.,0.,0.));
#351=DIRECTION('',(0.,1.,0.));
#352=DIRECTION('',(0.,0.,-1.));
#353=DIRECTION('',(-0.0428711055462265,0.998629534754574,-0.0300186712748522));
#354=DIRECTION('',(0.,-1.,0.));
#355=DIRECTION('',(0.,0.,1.));
#356=DIRECTION('',(-0.0523359562429438,0.998629534754574,0.));
#357=DIRECTION('',(0.,1.,0.));
#358=DIRECTION('',(0.,0.,-1.));
#359=DIRECTION('',(0.,-1.,0.));
#360=DIRECTION('',(0.,-9.10907967663081E-16,-1.));
#361=DIRECTION('',(-1.,0.,-9.70981506881295E-18));
#362=DIRECTION('',(0.,1.,0.));
#363=DIRECTION('',(0.,0.,1.));
#364=DIRECTION('',(-0.819152044288989,0.,-0.57357643635105));
#365=DIRECTION('',(0.,1.,0.));
#366=DIRECTION('',(0.,0.,-1.));
#367=DIRECTION('',(0.57357643635105,0.,-0.819152044288989));
#368=DIRECTION('',(-0.819152044288993,0.,-0.573576436351049));
#369=DIRECTION('',(-0.57357643635105,0.,0.819152044288989));
#370=DIRECTION('',(-0.819152044288989,0.,-0.57357643635105));
#371=DIRECTION('',(-0.57357643635105,0.,0.819152044288989));
#372=DIRECTION('',(-0.819152044288989,0.,-0.57357643635105));
#373=DIRECTION('',(0.57357643635105,0.,-0.819152044288989));
#374=DIRECTION('',(-0.819152044288993,0.,-0.573576436351049));
#375=DIRECTION('',(0.57357643635105,0.,-0.819152044288989));
#376=DIRECTION('',(0.819152044288989,0.,0.57357643635105));
#377=DIRECTION('',(0.,0.,1.));
#378=DIRECTION('',(-1.,0.,0.));
#379=DIRECTION('',(0.,0.,1.));
#380=DIRECTION('',(-1.,0.,0.));
#381=DIRECTION('',(0.,0.,-1.));
#382=DIRECTION('',(-1.,0.,0.));
#383=DIRECTION('',(0.,0.,-1.));
#384=DIRECTION('',(-1.,0.,0.));
#385=DIRECTION('',(0.,0.,-1.));
#386=DIRECTION('',(1.,0.,0.));
#387=DIRECTION('',(0.,1.,0.));
#388=DIRECTION('',(0.,0.,-1.));
#389=DIRECTION('',(0.,-1.,0.));
#390=DIRECTION('',(0.,0.,1.));
#391=DIRECTION('',(0.,-1.,0.));
#392=DIRECTION('',(0.,0.,1.));
#393=DIRECTION('',(0.,1.,0.));
#394=DIRECTION('',(0.,0.,-1.));
#395=CARTESIAN_POINT('',(0.,0.,0.));
#396=CARTESIAN_POINT('',(0.,0.,0.));
#397=CARTESIAN_POINT('',(3.68618419930045,0.,2.58109396357973));
#398=CARTESIAN_POINT('',(4.5,0.,0.));
#399=CARTESIAN_POINT('',(4.5,3.5,0.));
#400=CARTESIAN_POINT('',(4.5,3.5,-8.176892426722E-18));
#401=CARTESIAN_POINT('',(0.,3.5,0.));
#402=CARTESIAN_POINT('',(3.68618419930045,3.5,2.58109396357973));
#403=CARTESIAN_POINT('',(3.68618419930045,3.5,2.58109396357973));
#404=CARTESIAN_POINT('',(0.,0.,0.));
#405=CARTESIAN_POINT('',(3.68618419930045,0.,2.58109396357973));
#406=CARTESIAN_POINT('',(4.18185600382451,3.91087915617799E-17,2.92816709758549));
#407=CARTESIAN_POINT('',(0.,2.71050543121376E-17,0.));
#408=CARTESIAN_POINT('',(5.10510354332851,3.91087915617799E-17,0.));
#409=CARTESIAN_POINT('',(4.5,0.,0.));
#410=CARTESIAN_POINT('',(3.68618419930045,2.26210492361828E-17,2.58109396357973));
#411=CARTESIAN_POINT('',(0.,-99.2219107761867,0.));
#412=CARTESIAN_POINT('',(5.20496649680397,0.0947664043757096,0.));
#413=CARTESIAN_POINT('',(5.25309348209388,1.01308398906073,0.));
#414=CARTESIAN_POINT('',(0.,0.0947664043757096,0.));
#415=CARTESIAN_POINT('',(4.26365894631267,0.0947664043757096,2.98544613456343));
#416=CARTESIAN_POINT('',(0.,-99.2219107761867,0.));
#417=CARTESIAN_POINT('',(4.30308226469836,1.01308398906073,3.01305063927834));
#418=CARTESIAN_POINT('',(0.,1.01308398906074,0.));
#419=CARTESIAN_POINT('',(0.,2.26210492361828E-17,0.));
#420=CARTESIAN_POINT('',(5.2,1.25,0.));
#421=CARTESIAN_POINT('',(5.50275086578252,1.25,0.));
#422=CARTESIAN_POINT('',(6.1,1.25,0.));
#423=CARTESIAN_POINT('',(0.,1.25,0.));
#424=CARTESIAN_POINT('',(4.50758962091876,1.25,3.15624823172319));
#425=CARTESIAN_POINT('',(4.25959063030274,1.25,2.98259746902546));
#426=CARTESIAN_POINT('',(4.99682747016283,1.25,3.49881626174141));
#427=CARTESIAN_POINT('',(0.,1.25,0.));
#428=CARTESIAN_POINT('',(4.25959063030274,1.25,2.98259746902546));
#429=CARTESIAN_POINT('',(0.,2.25,0.));
#430=CARTESIAN_POINT('',(4.99682747016283,2.25,3.49881626174141));
#431=CARTESIAN_POINT('',(6.1,2.25,0.));
#432=CARTESIAN_POINT('',(6.1,1.25,0.));
#433=CARTESIAN_POINT('',(4.99682747016283,1.25,3.49881626174141));
#434=CARTESIAN_POINT('',(0.,0.,0.));
#435=CARTESIAN_POINT('',(4.99682747016283,2.25,3.49881626174141));
#436=CARTESIAN_POINT('',(4.50758962091876,2.25,3.15624823172319));
#437=CARTESIAN_POINT('',(0.,2.25,0.));
#438=CARTESIAN_POINT('',(5.50275086578252,2.25,0.));
#439=CARTESIAN_POINT('',(6.1,2.25,0.));
#440=CARTESIAN_POINT('',(4.99682747016283,2.25,3.49881626174141));
#441=CARTESIAN_POINT('',(0.,102.721910776187,0.));
#442=CARTESIAN_POINT('',(4.30308226469836,2.48691601093927,3.01305063927834));
#443=CARTESIAN_POINT('',(4.26365894631267,3.40523359562429,2.98544613456343));
#444=CARTESIAN_POINT('',(0.,3.40523359562429,0.));
#445=CARTESIAN_POINT('',(5.20496649680397,3.40523359562429,0.));
#446=CARTESIAN_POINT('',(0.,102.721910776187,0.));
#447=CARTESIAN_POINT('',(5.25309348209388,2.48691601093927,0.));
#448=CARTESIAN_POINT('',(0.,2.48691601093926,0.));
#449=CARTESIAN_POINT('',(0.,3.5,0.));
#450=CARTESIAN_POINT('',(5.2,3.5,-1.38002187855294E-18));
#451=CARTESIAN_POINT('',(5.10510354332851,3.5,-2.30144892351871E-18));
#452=CARTESIAN_POINT('',(0.,3.5,0.));
#453=CARTESIAN_POINT('',(4.18185600382451,3.5,2.92816709758549));
#454=CARTESIAN_POINT('',(4.25959063030274,3.5,2.98259746902546));
#455=CARTESIAN_POINT('',(4.25959063030274,3.5,2.98259746902546));
#456=CARTESIAN_POINT('',(4.18185600382451,3.4,2.92816709758549));
#457=CARTESIAN_POINT('',(4.50758962091876,2.5,3.15624823172319));
#458=CARTESIAN_POINT('',(4.50758962091876,1.,3.15624823172319));
#459=CARTESIAN_POINT('',(4.18185600382451,0.1,2.92816709758549));
#460=CARTESIAN_POINT('',(3.68618419930045,2.25,2.58109396357973));
#461=CARTESIAN_POINT('',(5.10510354332851,3.4,0.));
#462=CARTESIAN_POINT('',(5.10510354332851,0.1,0.));
#463=CARTESIAN_POINT('',(5.50275086578252,1.,0.));
#464=CARTESIAN_POINT('',(5.50275086578252,2.5,0.));
#465=CARTESIAN_POINT('',(4.5,2.25,0.));
#466=CARTESIAN_POINT('',(0.,3.4,0.));
#467=CARTESIAN_POINT('',(0.,0.1,0.));
#468=CARTESIAN_POINT('',(0.,1.,0.));
#469=CARTESIAN_POINT('',(0.,2.5,0.));
#470=MECHANICAL_DESIGN_GEOMETRIC_PRESENTATION_REPRESENTATION('',(#24),#471);
#471=(
GEOMETRIC_REPRESENTATION_CONTEXT(3)
GLOBAL_UNCERTAINTY_ASSIGNED_CONTEXT((#472))
GLOBAL_UNIT_ASSIGNED_CONTEXT((#478,#474,#473))
REPRESENTATION_CONTEXT('5013470___Gleitring_part_121013_stp',
'TOP_LEVEL_ASSEMBLY_PART')
);
#472=UNCERTAINTY_MEASURE_WITH_UNIT(LENGTH_MEASURE(2.E-5),#478,
'DISTANCE_ACCURACY_VALUE','Maximum Tolerance applied to model');
#473=(
NAMED_UNIT(*)
SI_UNIT($,.STERADIAN.)
SOLID_ANGLE_UNIT()
);
#474=(
CONVERSION_BASED_UNIT('DEGREE',#476)
NAMED_UNIT(#475)
PLANE_ANGLE_UNIT()
);
#475=DIMENSIONAL_EXPONENTS(0.,0.,0.,0.,0.,0.,0.);
#476=PLANE_ANGLE_MEASURE_WITH_UNIT(PLANE_ANGLE_MEASURE(0.0174532925),#477);
#477=(
NAMED_UNIT(*)
PLANE_ANGLE_UNIT()
SI_UNIT($,.RADIAN.)
);
#478=(
LENGTH_UNIT()
NAMED_UNIT(*)
SI_UNIT(.MILLI.,.METRE.)
);
ENDSEC;
END-ISO-10303-21;
