ISO-10303-21;
HEADER;
/* Generated by software containing ST-Developer
 * from STEP Tools, Inc. (www.steptools.com) 
 */
/* OPTION: using custom schema-name function */

FILE_DESCRIPTION(
/* description */ (''),
/* implementation_level */ '2;1');

FILE_NAME(
/* name */ 'Dichtung_5_2-7_0.stp',
/* time_stamp */ '2020-03-09T10:05:39+01:00',
/* author */ ('ESCHA GmbH & Co. KG'),
/* organization */ ('ESCHA GmbH & Co. KG'),
/* preprocessor_version */ 'ST-DEVELOPER v16',
/* originating_system */ 'SIEMENS PLM Software NX 10.0',
/* authorisation */ '');

FILE_SCHEMA (('AUTOMOTIVE_DESIGN { 1 0 10303 214 3 1 1 1 }'));
ENDSEC;

DATA;
#10=SHAPE_REPRESENTATION_RELATIONSHIP('None',
'relationship between 5035191__Dichtung_part_380400-None and 5035191__
Dichtung_part_380400-None',#22,#11);
#11=ADVANCED_BREP_SHAPE_REPRESENTATION(
'5035191__Dichtung_part_380400-None',(#32),#119);
#12=SHAPE_DEFINITION_REPRESENTATION(#13,#22);
#13=PRODUCT_DEFINITION_SHAPE('','',#14);
#14=PRODUCT_DEFINITION(' ','',#16,#15);
#15=PRODUCT_DEFINITION_CONTEXT('part definition',#21,'design');
#16=PRODUCT_DEFINITION_FORMATION_WITH_SPECIFIED_SOURCE(' ',' ',#18,
 .NOT_KNOWN.);
#17=PRODUCT_RELATED_PRODUCT_CATEGORY('part','',(#18));
#18=PRODUCT('5035191__Dichtung_part_380400',
'5035191__Dichtung_part_380400',' ',(#19));
#19=PRODUCT_CONTEXT(' ',#21,'mechanical');
#20=APPLICATION_PROTOCOL_DEFINITION('international standard',
'automotive_design',2010,#21);
#21=APPLICATION_CONTEXT(
'core data for automotive mechanical design processes');
#22=SHAPE_REPRESENTATION('5035191__Dichtung_part_380400-None',(#78),#119);
#23=PRESENTATION_LAYER_ASSIGNMENT('1','Layer 1',(#32));
#24=STYLED_ITEM('',(#25),#32);
#25=PRESENTATION_STYLE_ASSIGNMENT((#26));
#26=SURFACE_STYLE_USAGE(.BOTH.,#27);
#27=SURFACE_SIDE_STYLE('',(#28));
#28=SURFACE_STYLE_FILL_AREA(#29);
#29=FILL_AREA_STYLE('',(#30));
#30=FILL_AREA_STYLE_COLOUR('',#31);
#31=COLOUR_RGB('Medium Gray',0.490196078431373,0.490196078431373,0.490196078431373);
#32=MANIFOLD_SOLID_BREP('',#33);
#33=CLOSED_SHELL('',(#36,#37,#38,#39));
#34=PLANE('',#83);
#35=PLANE('',#86);
#36=ADVANCED_FACE('',(#42,#43),#40,.F.);
#37=ADVANCED_FACE('',(#44,#45),#34,.T.);
#38=ADVANCED_FACE('',(#46,#47),#41,.T.);
#39=ADVANCED_FACE('',(#48,#49),#35,.T.);
#40=CYLINDRICAL_SURFACE('',#81,3.6);
#41=CYLINDRICAL_SURFACE('',#85,5.35);
#42=FACE_BOUND('',#50,.T.);
#43=FACE_BOUND('',#51,.T.);
#44=FACE_BOUND('',#52,.T.);
#45=FACE_BOUND('',#53,.T.);
#46=FACE_BOUND('',#54,.T.);
#47=FACE_BOUND('',#55,.T.);
#48=FACE_BOUND('',#56,.T.);
#49=FACE_BOUND('',#57,.T.);
#50=EDGE_LOOP('',(#58));
#51=EDGE_LOOP('',(#59));
#52=EDGE_LOOP('',(#60));
#53=EDGE_LOOP('',(#61));
#54=EDGE_LOOP('',(#62));
#55=EDGE_LOOP('',(#63));
#56=EDGE_LOOP('',(#64));
#57=EDGE_LOOP('',(#65));
#58=ORIENTED_EDGE('',*,*,#70,.T.);
#59=ORIENTED_EDGE('',*,*,#71,.F.);
#60=ORIENTED_EDGE('',*,*,#72,.T.);
#61=ORIENTED_EDGE('',*,*,#70,.F.);
#62=ORIENTED_EDGE('',*,*,#73,.T.);
#63=ORIENTED_EDGE('',*,*,#72,.F.);
#64=ORIENTED_EDGE('',*,*,#71,.T.);
#65=ORIENTED_EDGE('',*,*,#73,.F.);
#66=VERTEX_POINT('',#107);
#67=VERTEX_POINT('',#109);
#68=VERTEX_POINT('',#112);
#69=VERTEX_POINT('',#115);
#70=EDGE_CURVE('',#66,#66,#74,.T.);
#71=EDGE_CURVE('',#67,#67,#75,.T.);
#72=EDGE_CURVE('',#68,#68,#76,.T.);
#73=EDGE_CURVE('',#69,#69,#77,.T.);
#74=CIRCLE('',#79,3.6);
#75=CIRCLE('',#80,3.6);
#76=CIRCLE('',#82,5.35);
#77=CIRCLE('',#84,5.35);
#78=AXIS2_PLACEMENT_3D('',#105,#87,#88);
#79=AXIS2_PLACEMENT_3D('',#106,#89,#90);
#80=AXIS2_PLACEMENT_3D('',#108,#91,#92);
#81=AXIS2_PLACEMENT_3D('',#110,#93,#94);
#82=AXIS2_PLACEMENT_3D('',#111,#95,#96);
#83=AXIS2_PLACEMENT_3D('',#113,#97,#98);
#84=AXIS2_PLACEMENT_3D('',#114,#99,#100);
#85=AXIS2_PLACEMENT_3D('',#116,#101,#102);
#86=AXIS2_PLACEMENT_3D('',#117,#103,#104);
#87=DIRECTION('',(0.,0.,1.));
#88=DIRECTION('',(1.,0.,0.));
#89=DIRECTION('',(0.,1.,0.));
#90=DIRECTION('',(0.,0.,1.));
#91=DIRECTION('',(0.,1.,0.));
#92=DIRECTION('',(0.,0.,1.));
#93=DIRECTION('',(0.,1.,0.));
#94=DIRECTION('',(0.,0.,1.));
#95=DIRECTION('',(0.,1.,0.));
#96=DIRECTION('',(0.,0.,1.));
#97=DIRECTION('',(0.,1.,0.));
#98=DIRECTION('',(0.,0.,1.));
#99=DIRECTION('',(0.,1.,0.));
#100=DIRECTION('',(0.,0.,1.));
#101=DIRECTION('',(0.,1.,0.));
#102=DIRECTION('',(0.,0.,1.));
#103=DIRECTION('',(0.,-1.,0.));
#104=DIRECTION('',(0.,0.,-1.));
#105=CARTESIAN_POINT('',(0.,0.,0.));
#106=CARTESIAN_POINT('',(0.,8.5,0.));
#107=CARTESIAN_POINT('',(0.,8.5,3.6));
#108=CARTESIAN_POINT('',(0.,1.22464679914735E-16,0.));
#109=CARTESIAN_POINT('',(0.,1.22464679914735E-16,3.6));
#110=CARTESIAN_POINT('',(0.,0.,0.));
#111=CARTESIAN_POINT('',(0.,8.5,0.));
#112=CARTESIAN_POINT('',(0.,8.5,5.35));
#113=CARTESIAN_POINT('',(0.,8.5,3.6));
#114=CARTESIAN_POINT('',(0.,0.,0.));
#115=CARTESIAN_POINT('',(0.,0.,5.35));
#116=CARTESIAN_POINT('',(0.,0.,0.));
#117=CARTESIAN_POINT('',(0.,6.12323399573676E-17,5.35));
#118=MECHANICAL_DESIGN_GEOMETRIC_PRESENTATION_REPRESENTATION('',(#24),#119);
#119=(
GEOMETRIC_REPRESENTATION_CONTEXT(3)
GLOBAL_UNCERTAINTY_ASSIGNED_CONTEXT((#120))
GLOBAL_UNIT_ASSIGNED_CONTEXT((#126,#122,#121))
REPRESENTATION_CONTEXT('Dichtung_5_2-7_0','TOP_LEVEL_ASSEMBLY_PART')
);
#120=UNCERTAINTY_MEASURE_WITH_UNIT(LENGTH_MEASURE(2.E-5),#126,
'DISTANCE_ACCURACY_VALUE','Maximum Tolerance applied to model');
#121=(
NAMED_UNIT(*)
SI_UNIT($,.STERADIAN.)
SOLID_ANGLE_UNIT()
);
#122=(
CONVERSION_BASED_UNIT('DEGREE',#124)
NAMED_UNIT(#123)
PLANE_ANGLE_UNIT()
);
#123=DIMENSIONAL_EXPONENTS(0.,0.,0.,0.,0.,0.,0.);
#124=PLANE_ANGLE_MEASURE_WITH_UNIT(PLANE_ANGLE_MEASURE(0.0174532925),#125);
#125=(
NAMED_UNIT(*)
PLANE_ANGLE_UNIT()
SI_UNIT($,.RADIAN.)
);
#126=(
LENGTH_UNIT()
NAMED_UNIT(*)
SI_UNIT(.MILLI.,.METRE.)
);
ENDSEC;
END-ISO-10303-21;
