ISO-10303-21;
HEADER;
/* Generated by software containing ST-Developer
 * from STEP Tools, Inc. (www.steptools.com) 
 */
/* OPTION: using custom schema-name function */

FILE_DESCRIPTION(
/* description */ (''),
/* implementation_level */ '2;1');

FILE_NAME(
/* name */ 'Bezeichnungsschild_Ventil_A.stp',
/* time_stamp */ '2018-09-06T12:35:26+02:00',
/* author */ (''),
/* organization */ (''),
/* preprocessor_version */ 'ST-DEVELOPER v16',
/* originating_system */ 'SIEMENS PLM Software NX 10.0',
/* authorisation */ '');

FILE_SCHEMA (('AUTOMOTIVE_DESIGN { 1 0 10303 214 3 1 1 1 }'));
ENDSEC;

DATA;
#10=SHAPE_REPRESENTATION_RELATIONSHIP('None',
'relationship between Bezeichnungsschild_Ventil_A-None and Bezeichnung
sschild_Ventil_A-None',#22,#11);
#11=ADVANCED_BREP_SHAPE_REPRESENTATION(
'Bezeichnungsschild_Ventil_A-None',(#32),#755);
#12=SHAPE_DEFINITION_REPRESENTATION(#13,#22);
#13=PRODUCT_DEFINITION_SHAPE('','',#14);
#14=PRODUCT_DEFINITION(' ','',#16,#15);
#15=PRODUCT_DEFINITION_CONTEXT('part definition',#21,'design');
#16=PRODUCT_DEFINITION_FORMATION_WITH_SPECIFIED_SOURCE(' ',' ',#18,
 .NOT_KNOWN.);
#17=PRODUCT_RELATED_PRODUCT_CATEGORY('part','',(#18));
#18=PRODUCT('Bezeichnungsschild_Ventil_A','Bezeichnungsschild_Ventil_A',
' ',(#19));
#19=PRODUCT_CONTEXT(' ',#21,'mechanical');
#20=APPLICATION_PROTOCOL_DEFINITION('international standard',
'automotive_design',2010,#21);
#21=APPLICATION_CONTEXT(
'core data for automotive mechanical design processes');
#22=SHAPE_REPRESENTATION('Bezeichnungsschild_Ventil_A-None',(#486),#755);
#23=PRESENTATION_LAYER_ASSIGNMENT('1','Layer 1',(#32));
#24=STYLED_ITEM('',(#25),#32);
#25=PRESENTATION_STYLE_ASSIGNMENT((#26));
#26=SURFACE_STYLE_USAGE(.BOTH.,#27);
#27=SURFACE_SIDE_STYLE('',(#28));
#28=SURFACE_STYLE_FILL_AREA(#29);
#29=FILL_AREA_STYLE('',(#30));
#30=FILL_AREA_STYLE_COLOUR('',#31);
#31=COLOUR_RGB('Medium Gray',0.490196078431373,0.490196078431373,0.490196078431373);
#32=MANIFOLD_SOLID_BREP('',#33);
#33=CLOSED_SHELL('',(#58,#59,#60,#61,#62,#63,#64,#65,#66,#67,#68,#69,#70,
#71,#72,#73,#74,#75,#76,#77,#78,#79,#80,#81,#82,#83));
#34=FACE_OUTER_BOUND('',#119,.T.);
#35=FACE_OUTER_BOUND('',#123,.T.);
#36=FACE_OUTER_BOUND('',#124,.T.);
#37=FACE_OUTER_BOUND('',#125,.T.);
#38=FACE_OUTER_BOUND('',#126,.T.);
#39=FACE_OUTER_BOUND('',#127,.T.);
#40=FACE_OUTER_BOUND('',#128,.T.);
#41=FACE_OUTER_BOUND('',#129,.T.);
#42=FACE_OUTER_BOUND('',#130,.T.);
#43=FACE_OUTER_BOUND('',#131,.T.);
#44=FACE_OUTER_BOUND('',#132,.T.);
#45=FACE_OUTER_BOUND('',#133,.T.);
#46=FACE_OUTER_BOUND('',#134,.T.);
#47=FACE_OUTER_BOUND('',#135,.T.);
#48=FACE_OUTER_BOUND('',#136,.T.);
#49=FACE_OUTER_BOUND('',#137,.T.);
#50=FACE_OUTER_BOUND('',#138,.T.);
#51=FACE_OUTER_BOUND('',#139,.T.);
#52=FACE_OUTER_BOUND('',#140,.T.);
#53=FACE_OUTER_BOUND('',#141,.T.);
#54=FACE_OUTER_BOUND('',#142,.T.);
#55=FACE_OUTER_BOUND('',#143,.T.);
#56=FACE_OUTER_BOUND('',#144,.T.);
#57=FACE_OUTER_BOUND('',#145,.T.);
#58=ADVANCED_FACE('',(#110,#111,#112),#84,.F.);
#59=ADVANCED_FACE('',(#34),#85,.F.);
#60=ADVANCED_FACE('',(#113,#114,#115),#86,.F.);
#61=ADVANCED_FACE('',(#35),#87,.F.);
#62=ADVANCED_FACE('',(#36),#88,.T.);
#63=ADVANCED_FACE('',(#37),#89,.F.);
#64=ADVANCED_FACE('',(#38),#90,.F.);
#65=ADVANCED_FACE('',(#39),#91,.T.);
#66=ADVANCED_FACE('',(#40),#92,.T.);
#67=ADVANCED_FACE('',(#41),#93,.T.);
#68=ADVANCED_FACE('',(#42),#94,.T.);
#69=ADVANCED_FACE('',(#43),#95,.T.);
#70=ADVANCED_FACE('',(#44),#96,.T.);
#71=ADVANCED_FACE('',(#45),#97,.T.);
#72=ADVANCED_FACE('',(#46),#98,.T.);
#73=ADVANCED_FACE('',(#47),#99,.T.);
#74=ADVANCED_FACE('',(#48),#100,.F.);
#75=ADVANCED_FACE('',(#49),#101,.T.);
#76=ADVANCED_FACE('',(#50),#102,.T.);
#77=ADVANCED_FACE('',(#51),#103,.T.);
#78=ADVANCED_FACE('',(#52),#104,.T.);
#79=ADVANCED_FACE('',(#53),#105,.T.);
#80=ADVANCED_FACE('',(#54),#106,.T.);
#81=ADVANCED_FACE('',(#55),#107,.T.);
#82=ADVANCED_FACE('',(#56),#108,.T.);
#83=ADVANCED_FACE('',(#57),#109,.T.);
#84=PLANE('',#487);
#85=PLANE('',#488);
#86=PLANE('',#489);
#87=PLANE('',#490);
#88=PLANE('',#491);
#89=PLANE('',#492);
#90=PLANE('',#493);
#91=PLANE('',#494);
#92=PLANE('',#495);
#93=PLANE('',#496);
#94=PLANE('',#497);
#95=PLANE('',#498);
#96=PLANE('',#499);
#97=PLANE('',#500);
#98=PLANE('',#501);
#99=PLANE('',#502);
#100=PLANE('',#503);
#101=PLANE('',#504);
#102=PLANE('',#505);
#103=PLANE('',#506);
#104=PLANE('',#507);
#105=PLANE('',#508);
#106=PLANE('',#509);
#107=PLANE('',#510);
#108=PLANE('',#511);
#109=PLANE('',#512);
#110=FACE_BOUND('',#116,.T.);
#111=FACE_BOUND('',#117,.T.);
#112=FACE_BOUND('',#118,.T.);
#113=FACE_BOUND('',#120,.T.);
#114=FACE_BOUND('',#121,.T.);
#115=FACE_BOUND('',#122,.T.);
#116=EDGE_LOOP('',(#146,#147,#148,#149));
#117=EDGE_LOOP('',(#150,#151,#152,#153));
#118=EDGE_LOOP('',(#154,#155,#156,#157));
#119=EDGE_LOOP('',(#158,#159,#160,#161));
#120=EDGE_LOOP('',(#162,#163,#164,#165));
#121=EDGE_LOOP('',(#166,#167,#168,#169));
#122=EDGE_LOOP('',(#170,#171,#172,#173));
#123=EDGE_LOOP('',(#174,#175,#176,#177));
#124=EDGE_LOOP('',(#178,#179,#180,#181));
#125=EDGE_LOOP('',(#182,#183,#184,#185));
#126=EDGE_LOOP('',(#186,#187,#188,#189));
#127=EDGE_LOOP('',(#190,#191,#192,#193));
#128=EDGE_LOOP('',(#194,#195,#196,#197));
#129=EDGE_LOOP('',(#198,#199,#200,#201));
#130=EDGE_LOOP('',(#202,#203,#204,#205));
#131=EDGE_LOOP('',(#206,#207,#208,#209));
#132=EDGE_LOOP('',(#210,#211,#212,#213));
#133=EDGE_LOOP('',(#214,#215,#216,#217));
#134=EDGE_LOOP('',(#218,#219,#220,#221));
#135=EDGE_LOOP('',(#222,#223,#224,#225));
#136=EDGE_LOOP('',(#226,#227,#228,#229));
#137=EDGE_LOOP('',(#230,#231,#232,#233));
#138=EDGE_LOOP('',(#234,#235,#236,#237));
#139=EDGE_LOOP('',(#238,#239,#240,#241));
#140=EDGE_LOOP('',(#242,#243,#244,#245));
#141=EDGE_LOOP('',(#246,#247,#248,#249));
#142=EDGE_LOOP('',(#250,#251,#252,#253));
#143=EDGE_LOOP('',(#254,#255,#256,#257));
#144=EDGE_LOOP('',(#258,#259,#260,#261));
#145=EDGE_LOOP('',(#262,#263,#264,#265));
#146=ORIENTED_EDGE('',*,*,#306,.T.);
#147=ORIENTED_EDGE('',*,*,#307,.T.);
#148=ORIENTED_EDGE('',*,*,#308,.T.);
#149=ORIENTED_EDGE('',*,*,#309,.T.);
#150=ORIENTED_EDGE('',*,*,#310,.T.);
#151=ORIENTED_EDGE('',*,*,#311,.T.);
#152=ORIENTED_EDGE('',*,*,#312,.T.);
#153=ORIENTED_EDGE('',*,*,#313,.T.);
#154=ORIENTED_EDGE('',*,*,#314,.T.);
#155=ORIENTED_EDGE('',*,*,#315,.F.);
#156=ORIENTED_EDGE('',*,*,#316,.F.);
#157=ORIENTED_EDGE('',*,*,#317,.T.);
#158=ORIENTED_EDGE('',*,*,#318,.T.);
#159=ORIENTED_EDGE('',*,*,#319,.F.);
#160=ORIENTED_EDGE('',*,*,#320,.F.);
#161=ORIENTED_EDGE('',*,*,#315,.T.);
#162=ORIENTED_EDGE('',*,*,#321,.T.);
#163=ORIENTED_EDGE('',*,*,#322,.T.);
#164=ORIENTED_EDGE('',*,*,#323,.T.);
#165=ORIENTED_EDGE('',*,*,#324,.T.);
#166=ORIENTED_EDGE('',*,*,#325,.T.);
#167=ORIENTED_EDGE('',*,*,#326,.T.);
#168=ORIENTED_EDGE('',*,*,#327,.T.);
#169=ORIENTED_EDGE('',*,*,#328,.T.);
#170=ORIENTED_EDGE('',*,*,#329,.T.);
#171=ORIENTED_EDGE('',*,*,#330,.F.);
#172=ORIENTED_EDGE('',*,*,#331,.F.);
#173=ORIENTED_EDGE('',*,*,#319,.T.);
#174=ORIENTED_EDGE('',*,*,#332,.T.);
#175=ORIENTED_EDGE('',*,*,#317,.F.);
#176=ORIENTED_EDGE('',*,*,#333,.F.);
#177=ORIENTED_EDGE('',*,*,#330,.T.);
#178=ORIENTED_EDGE('',*,*,#316,.T.);
#179=ORIENTED_EDGE('',*,*,#320,.T.);
#180=ORIENTED_EDGE('',*,*,#331,.T.);
#181=ORIENTED_EDGE('',*,*,#333,.T.);
#182=ORIENTED_EDGE('',*,*,#314,.F.);
#183=ORIENTED_EDGE('',*,*,#332,.F.);
#184=ORIENTED_EDGE('',*,*,#329,.F.);
#185=ORIENTED_EDGE('',*,*,#318,.F.);
#186=ORIENTED_EDGE('',*,*,#334,.F.);
#187=ORIENTED_EDGE('',*,*,#335,.F.);
#188=ORIENTED_EDGE('',*,*,#336,.F.);
#189=ORIENTED_EDGE('',*,*,#337,.F.);
#190=ORIENTED_EDGE('',*,*,#325,.F.);
#191=ORIENTED_EDGE('',*,*,#338,.F.);
#192=ORIENTED_EDGE('',*,*,#335,.T.);
#193=ORIENTED_EDGE('',*,*,#339,.T.);
#194=ORIENTED_EDGE('',*,*,#328,.F.);
#195=ORIENTED_EDGE('',*,*,#340,.F.);
#196=ORIENTED_EDGE('',*,*,#336,.T.);
#197=ORIENTED_EDGE('',*,*,#338,.T.);
#198=ORIENTED_EDGE('',*,*,#327,.F.);
#199=ORIENTED_EDGE('',*,*,#341,.F.);
#200=ORIENTED_EDGE('',*,*,#337,.T.);
#201=ORIENTED_EDGE('',*,*,#340,.T.);
#202=ORIENTED_EDGE('',*,*,#326,.F.);
#203=ORIENTED_EDGE('',*,*,#339,.F.);
#204=ORIENTED_EDGE('',*,*,#334,.T.);
#205=ORIENTED_EDGE('',*,*,#341,.T.);
#206=ORIENTED_EDGE('',*,*,#311,.F.);
#207=ORIENTED_EDGE('',*,*,#342,.T.);
#208=ORIENTED_EDGE('',*,*,#343,.F.);
#209=ORIENTED_EDGE('',*,*,#344,.F.);
#210=ORIENTED_EDGE('',*,*,#310,.F.);
#211=ORIENTED_EDGE('',*,*,#345,.T.);
#212=ORIENTED_EDGE('',*,*,#346,.F.);
#213=ORIENTED_EDGE('',*,*,#342,.F.);
#214=ORIENTED_EDGE('',*,*,#313,.F.);
#215=ORIENTED_EDGE('',*,*,#347,.T.);
#216=ORIENTED_EDGE('',*,*,#348,.F.);
#217=ORIENTED_EDGE('',*,*,#345,.F.);
#218=ORIENTED_EDGE('',*,*,#312,.F.);
#219=ORIENTED_EDGE('',*,*,#344,.T.);
#220=ORIENTED_EDGE('',*,*,#349,.F.);
#221=ORIENTED_EDGE('',*,*,#347,.F.);
#222=ORIENTED_EDGE('',*,*,#343,.T.);
#223=ORIENTED_EDGE('',*,*,#346,.T.);
#224=ORIENTED_EDGE('',*,*,#348,.T.);
#225=ORIENTED_EDGE('',*,*,#349,.T.);
#226=ORIENTED_EDGE('',*,*,#350,.F.);
#227=ORIENTED_EDGE('',*,*,#351,.F.);
#228=ORIENTED_EDGE('',*,*,#352,.F.);
#229=ORIENTED_EDGE('',*,*,#353,.F.);
#230=ORIENTED_EDGE('',*,*,#321,.F.);
#231=ORIENTED_EDGE('',*,*,#354,.F.);
#232=ORIENTED_EDGE('',*,*,#351,.T.);
#233=ORIENTED_EDGE('',*,*,#355,.T.);
#234=ORIENTED_EDGE('',*,*,#324,.F.);
#235=ORIENTED_EDGE('',*,*,#356,.F.);
#236=ORIENTED_EDGE('',*,*,#352,.T.);
#237=ORIENTED_EDGE('',*,*,#354,.T.);
#238=ORIENTED_EDGE('',*,*,#323,.F.);
#239=ORIENTED_EDGE('',*,*,#357,.F.);
#240=ORIENTED_EDGE('',*,*,#353,.T.);
#241=ORIENTED_EDGE('',*,*,#356,.T.);
#242=ORIENTED_EDGE('',*,*,#322,.F.);
#243=ORIENTED_EDGE('',*,*,#355,.F.);
#244=ORIENTED_EDGE('',*,*,#350,.T.);
#245=ORIENTED_EDGE('',*,*,#357,.T.);
#246=ORIENTED_EDGE('',*,*,#307,.F.);
#247=ORIENTED_EDGE('',*,*,#358,.T.);
#248=ORIENTED_EDGE('',*,*,#359,.F.);
#249=ORIENTED_EDGE('',*,*,#360,.F.);
#250=ORIENTED_EDGE('',*,*,#306,.F.);
#251=ORIENTED_EDGE('',*,*,#361,.T.);
#252=ORIENTED_EDGE('',*,*,#362,.F.);
#253=ORIENTED_EDGE('',*,*,#358,.F.);
#254=ORIENTED_EDGE('',*,*,#309,.F.);
#255=ORIENTED_EDGE('',*,*,#363,.T.);
#256=ORIENTED_EDGE('',*,*,#364,.F.);
#257=ORIENTED_EDGE('',*,*,#361,.F.);
#258=ORIENTED_EDGE('',*,*,#308,.F.);
#259=ORIENTED_EDGE('',*,*,#360,.T.);
#260=ORIENTED_EDGE('',*,*,#365,.F.);
#261=ORIENTED_EDGE('',*,*,#363,.F.);
#262=ORIENTED_EDGE('',*,*,#359,.T.);
#263=ORIENTED_EDGE('',*,*,#362,.T.);
#264=ORIENTED_EDGE('',*,*,#364,.T.);
#265=ORIENTED_EDGE('',*,*,#365,.T.);
#266=VERTEX_POINT('',#629);
#267=VERTEX_POINT('',#630);
#268=VERTEX_POINT('',#632);
#269=VERTEX_POINT('',#634);
#270=VERTEX_POINT('',#637);
#271=VERTEX_POINT('',#638);
#272=VERTEX_POINT('',#640);
#273=VERTEX_POINT('',#642);
#274=VERTEX_POINT('',#645);
#275=VERTEX_POINT('',#646);
#276=VERTEX_POINT('',#648);
#277=VERTEX_POINT('',#650);
#278=VERTEX_POINT('',#654);
#279=VERTEX_POINT('',#656);
#280=VERTEX_POINT('',#660);
#281=VERTEX_POINT('',#661);
#282=VERTEX_POINT('',#663);
#283=VERTEX_POINT('',#665);
#284=VERTEX_POINT('',#668);
#285=VERTEX_POINT('',#669);
#286=VERTEX_POINT('',#671);
#287=VERTEX_POINT('',#673);
#288=VERTEX_POINT('',#676);
#289=VERTEX_POINT('',#678);
#290=VERTEX_POINT('',#687);
#291=VERTEX_POINT('',#688);
#292=VERTEX_POINT('',#690);
#293=VERTEX_POINT('',#692);
#294=VERTEX_POINT('',#704);
#295=VERTEX_POINT('',#706);
#296=VERTEX_POINT('',#710);
#297=VERTEX_POINT('',#714);
#298=VERTEX_POINT('',#721);
#299=VERTEX_POINT('',#722);
#300=VERTEX_POINT('',#724);
#301=VERTEX_POINT('',#726);
#302=VERTEX_POINT('',#738);
#303=VERTEX_POINT('',#740);
#304=VERTEX_POINT('',#744);
#305=VERTEX_POINT('',#748);
#306=EDGE_CURVE('',#266,#267,#366,.T.);
#307=EDGE_CURVE('',#267,#268,#367,.T.);
#308=EDGE_CURVE('',#268,#269,#368,.T.);
#309=EDGE_CURVE('',#269,#266,#369,.T.);
#310=EDGE_CURVE('',#270,#271,#370,.T.);
#311=EDGE_CURVE('',#271,#272,#371,.T.);
#312=EDGE_CURVE('',#272,#273,#372,.T.);
#313=EDGE_CURVE('',#273,#270,#373,.T.);
#314=EDGE_CURVE('',#274,#275,#374,.T.);
#315=EDGE_CURVE('',#276,#275,#375,.T.);
#316=EDGE_CURVE('',#277,#276,#376,.T.);
#317=EDGE_CURVE('',#277,#274,#377,.T.);
#318=EDGE_CURVE('',#275,#278,#378,.T.);
#319=EDGE_CURVE('',#279,#278,#379,.T.);
#320=EDGE_CURVE('',#276,#279,#380,.T.);
#321=EDGE_CURVE('',#280,#281,#381,.T.);
#322=EDGE_CURVE('',#281,#282,#382,.T.);
#323=EDGE_CURVE('',#282,#283,#383,.T.);
#324=EDGE_CURVE('',#283,#280,#384,.T.);
#325=EDGE_CURVE('',#284,#285,#385,.T.);
#326=EDGE_CURVE('',#285,#286,#386,.T.);
#327=EDGE_CURVE('',#286,#287,#387,.T.);
#328=EDGE_CURVE('',#287,#284,#388,.T.);
#329=EDGE_CURVE('',#278,#288,#389,.T.);
#330=EDGE_CURVE('',#289,#288,#390,.T.);
#331=EDGE_CURVE('',#279,#289,#391,.T.);
#332=EDGE_CURVE('',#288,#274,#392,.T.);
#333=EDGE_CURVE('',#289,#277,#393,.T.);
#334=EDGE_CURVE('',#290,#291,#394,.T.);
#335=EDGE_CURVE('',#292,#290,#395,.T.);
#336=EDGE_CURVE('',#293,#292,#396,.T.);
#337=EDGE_CURVE('',#291,#293,#397,.T.);
#338=EDGE_CURVE('',#292,#284,#398,.T.);
#339=EDGE_CURVE('',#290,#285,#399,.T.);
#340=EDGE_CURVE('',#293,#287,#400,.T.);
#341=EDGE_CURVE('',#291,#286,#401,.T.);
#342=EDGE_CURVE('',#271,#294,#402,.T.);
#343=EDGE_CURVE('',#295,#294,#403,.T.);
#344=EDGE_CURVE('',#272,#295,#404,.T.);
#345=EDGE_CURVE('',#270,#296,#405,.T.);
#346=EDGE_CURVE('',#294,#296,#406,.T.);
#347=EDGE_CURVE('',#273,#297,#407,.T.);
#348=EDGE_CURVE('',#296,#297,#408,.T.);
#349=EDGE_CURVE('',#297,#295,#409,.T.);
#350=EDGE_CURVE('',#298,#299,#410,.T.);
#351=EDGE_CURVE('',#300,#298,#411,.T.);
#352=EDGE_CURVE('',#301,#300,#412,.T.);
#353=EDGE_CURVE('',#299,#301,#413,.T.);
#354=EDGE_CURVE('',#300,#280,#414,.T.);
#355=EDGE_CURVE('',#298,#281,#415,.T.);
#356=EDGE_CURVE('',#301,#283,#416,.T.);
#357=EDGE_CURVE('',#299,#282,#417,.T.);
#358=EDGE_CURVE('',#267,#302,#418,.T.);
#359=EDGE_CURVE('',#303,#302,#419,.T.);
#360=EDGE_CURVE('',#268,#303,#420,.T.);
#361=EDGE_CURVE('',#266,#304,#421,.T.);
#362=EDGE_CURVE('',#302,#304,#422,.T.);
#363=EDGE_CURVE('',#269,#305,#423,.T.);
#364=EDGE_CURVE('',#304,#305,#424,.T.);
#365=EDGE_CURVE('',#305,#303,#425,.T.);
#366=LINE('',#628,#426);
#367=LINE('',#631,#427);
#368=LINE('',#633,#428);
#369=LINE('',#635,#429);
#370=LINE('',#636,#430);
#371=LINE('',#639,#431);
#372=LINE('',#641,#432);
#373=LINE('',#643,#433);
#374=LINE('',#644,#434);
#375=LINE('',#647,#435);
#376=LINE('',#649,#436);
#377=LINE('',#651,#437);
#378=LINE('',#653,#438);
#379=LINE('',#655,#439);
#380=LINE('',#657,#440);
#381=LINE('',#659,#441);
#382=LINE('',#662,#442);
#383=LINE('',#664,#443);
#384=LINE('',#666,#444);
#385=LINE('',#667,#445);
#386=LINE('',#670,#446);
#387=LINE('',#672,#447);
#388=LINE('',#674,#448);
#389=LINE('',#675,#449);
#390=LINE('',#677,#450);
#391=LINE('',#679,#451);
#392=LINE('',#681,#452);
#393=LINE('',#682,#453);
#394=LINE('',#686,#454);
#395=LINE('',#689,#455);
#396=LINE('',#691,#456);
#397=LINE('',#693,#457);
#398=LINE('',#695,#458);
#399=LINE('',#696,#459);
#400=LINE('',#698,#460);
#401=LINE('',#700,#461);
#402=LINE('',#703,#462);
#403=LINE('',#705,#463);
#404=LINE('',#707,#464);
#405=LINE('',#709,#465);
#406=LINE('',#711,#466);
#407=LINE('',#713,#467);
#408=LINE('',#715,#468);
#409=LINE('',#717,#469);
#410=LINE('',#720,#470);
#411=LINE('',#723,#471);
#412=LINE('',#725,#472);
#413=LINE('',#727,#473);
#414=LINE('',#729,#474);
#415=LINE('',#730,#475);
#416=LINE('',#732,#476);
#417=LINE('',#734,#477);
#418=LINE('',#737,#478);
#419=LINE('',#739,#479);
#420=LINE('',#741,#480);
#421=LINE('',#743,#481);
#422=LINE('',#745,#482);
#423=LINE('',#747,#483);
#424=LINE('',#749,#484);
#425=LINE('',#751,#485);
#426=VECTOR('',#515,1.);
#427=VECTOR('',#516,1.);
#428=VECTOR('',#517,1.);
#429=VECTOR('',#518,1.);
#430=VECTOR('',#519,1.);
#431=VECTOR('',#520,1.);
#432=VECTOR('',#521,1.);
#433=VECTOR('',#522,1.);
#434=VECTOR('',#523,1.);
#435=VECTOR('',#524,1.);
#436=VECTOR('',#525,1.);
#437=VECTOR('',#526,1.);
#438=VECTOR('',#529,1.);
#439=VECTOR('',#530,1.);
#440=VECTOR('',#531,1.);
#441=VECTOR('',#534,1.);
#442=VECTOR('',#535,1.);
#443=VECTOR('',#536,1.);
#444=VECTOR('',#537,1.);
#445=VECTOR('',#538,1.);
#446=VECTOR('',#539,1.);
#447=VECTOR('',#540,1.);
#448=VECTOR('',#541,1.);
#449=VECTOR('',#542,1.);
#450=VECTOR('',#543,1.);
#451=VECTOR('',#544,1.);
#452=VECTOR('',#547,1.);
#453=VECTOR('',#548,1.);
#454=VECTOR('',#555,1.);
#455=VECTOR('',#556,1.);
#456=VECTOR('',#557,1.);
#457=VECTOR('',#558,1.);
#458=VECTOR('',#561,1.);
#459=VECTOR('',#562,1.);
#460=VECTOR('',#565,1.);
#461=VECTOR('',#568,1.);
#462=VECTOR('',#573,1.);
#463=VECTOR('',#574,1.);
#464=VECTOR('',#575,1.);
#465=VECTOR('',#578,1.);
#466=VECTOR('',#579,1.);
#467=VECTOR('',#582,1.);
#468=VECTOR('',#583,1.);
#469=VECTOR('',#586,1.);
#470=VECTOR('',#591,1.);
#471=VECTOR('',#592,1.);
#472=VECTOR('',#593,1.);
#473=VECTOR('',#594,1.);
#474=VECTOR('',#597,1.);
#475=VECTOR('',#598,1.);
#476=VECTOR('',#601,1.);
#477=VECTOR('',#604,1.);
#478=VECTOR('',#609,1.);
#479=VECTOR('',#610,1.);
#480=VECTOR('',#611,1.);
#481=VECTOR('',#614,1.);
#482=VECTOR('',#615,1.);
#483=VECTOR('',#618,1.);
#484=VECTOR('',#619,1.);
#485=VECTOR('',#622,1.);
#486=AXIS2_PLACEMENT_3D('',#627,#513,#514);
#487=AXIS2_PLACEMENT_3D('',#652,#527,#528);
#488=AXIS2_PLACEMENT_3D('',#658,#532,#533);
#489=AXIS2_PLACEMENT_3D('',#680,#545,#546);
#490=AXIS2_PLACEMENT_3D('',#683,#549,#550);
#491=AXIS2_PLACEMENT_3D('',#684,#551,#552);
#492=AXIS2_PLACEMENT_3D('',#685,#553,#554);
#493=AXIS2_PLACEMENT_3D('',#694,#559,#560);
#494=AXIS2_PLACEMENT_3D('',#697,#563,#564);
#495=AXIS2_PLACEMENT_3D('',#699,#566,#567);
#496=AXIS2_PLACEMENT_3D('',#701,#569,#570);
#497=AXIS2_PLACEMENT_3D('',#702,#571,#572);
#498=AXIS2_PLACEMENT_3D('',#708,#576,#577);
#499=AXIS2_PLACEMENT_3D('',#712,#580,#581);
#500=AXIS2_PLACEMENT_3D('',#716,#584,#585);
#501=AXIS2_PLACEMENT_3D('',#718,#587,#588);
#502=AXIS2_PLACEMENT_3D('',#719,#589,#590);
#503=AXIS2_PLACEMENT_3D('',#728,#595,#596);
#504=AXIS2_PLACEMENT_3D('',#731,#599,#600);
#505=AXIS2_PLACEMENT_3D('',#733,#602,#603);
#506=AXIS2_PLACEMENT_3D('',#735,#605,#606);
#507=AXIS2_PLACEMENT_3D('',#736,#607,#608);
#508=AXIS2_PLACEMENT_3D('',#742,#612,#613);
#509=AXIS2_PLACEMENT_3D('',#746,#616,#617);
#510=AXIS2_PLACEMENT_3D('',#750,#620,#621);
#511=AXIS2_PLACEMENT_3D('',#752,#623,#624);
#512=AXIS2_PLACEMENT_3D('',#753,#625,#626);
#513=DIRECTION('',(0.,0.,1.));
#514=DIRECTION('',(1.,0.,0.));
#515=DIRECTION('',(-3.46944695195361E-16,1.,0.));
#516=DIRECTION('',(0.,0.,-1.));
#517=DIRECTION('',(3.46944695195361E-16,-1.,-3.76459087668578E-16));
#518=DIRECTION('',(0.,0.,1.));
#519=DIRECTION('',(3.46944695195361E-16,-1.,3.76459087668578E-16));
#520=DIRECTION('',(0.,0.,1.));
#521=DIRECTION('',(-3.46944695195361E-16,1.,0.));
#522=DIRECTION('',(0.,0.,-1.));
#523=DIRECTION('',(-3.46944695195361E-16,1.,0.));
#524=DIRECTION('',(0.,0.,-1.));
#525=DIRECTION('',(-3.46944695195361E-16,1.,0.));
#526=DIRECTION('',(0.,0.,-1.));
#527=DIRECTION('',(-1.,-3.46944695195361E-16,0.));
#528=DIRECTION('',(-3.46944695195361E-16,1.,0.));
#529=DIRECTION('',(-1.,-4.95635278850517E-16,0.));
#530=DIRECTION('',(0.,0.,-1.));
#531=DIRECTION('',(-1.,-4.95635278850517E-16,0.));
#532=DIRECTION('',(4.95635278850517E-16,-1.,0.));
#533=DIRECTION('',(-1.,-4.96130914129367E-16,0.));
#534=DIRECTION('',(-1.0842021724855E-16,1.,3.76459087668578E-16));
#535=DIRECTION('',(0.,0.,1.));
#536=DIRECTION('',(1.0842021724855E-16,-1.,0.));
#537=DIRECTION('',(0.,0.,-1.));
#538=DIRECTION('',(1.0842021724855E-16,-1.,0.));
#539=DIRECTION('',(0.,0.,-1.));
#540=DIRECTION('',(-1.0842021724855E-16,1.,-3.76459087668578E-16));
#541=DIRECTION('',(0.,0.,1.));
#542=DIRECTION('',(1.0842021724855E-16,-1.,0.));
#543=DIRECTION('',(0.,0.,-1.));
#544=DIRECTION('',(1.0842021724855E-16,-1.,0.));
#545=DIRECTION('',(1.,1.0842021724855E-16,0.));
#546=DIRECTION('',(1.0842021724855E-16,-1.,0.));
#547=DIRECTION('',(1.,0.,0.));
#548=DIRECTION('',(1.,0.,0.));
#549=DIRECTION('',(0.,1.,0.));
#550=DIRECTION('',(0.,0.,1.));
#551=DIRECTION('',(0.,0.,1.));
#552=DIRECTION('',(0.,-1.,0.));
#553=DIRECTION('',(0.,0.,1.));
#554=DIRECTION('',(0.,-1.,0.));
#555=DIRECTION('',(0.,0.,-1.));
#556=DIRECTION('',(0.,-1.,0.));
#557=DIRECTION('',(0.,0.,1.));
#558=DIRECTION('',(0.,1.,-3.76459087668578E-16));
#559=DIRECTION('',(1.,0.,0.));
#560=DIRECTION('',(0.,0.,1.));
#561=DIRECTION('',(1.,0.,0.));
#562=DIRECTION('',(1.,0.,0.));
#563=DIRECTION('',(0.,0.,1.));
#564=DIRECTION('',(0.,-1.,0.));
#565=DIRECTION('',(1.,0.,0.));
#566=DIRECTION('',(0.,1.,0.));
#567=DIRECTION('',(0.,0.,1.));
#568=DIRECTION('',(1.,0.,0.));
#569=DIRECTION('',(0.,-3.76459087668578E-16,-1.));
#570=DIRECTION('',(0.,1.,-3.76462099341279E-16));
#571=DIRECTION('',(0.,-1.,0.));
#572=DIRECTION('',(0.,0.,-1.));
#573=DIRECTION('',(1.,0.,0.));
#574=DIRECTION('',(0.,0.,-1.));
#575=DIRECTION('',(1.,0.,0.));
#576=DIRECTION('',(0.,-1.,0.));
#577=DIRECTION('',(0.,0.,-1.));
#578=DIRECTION('',(1.,0.,0.));
#579=DIRECTION('',(0.,1.,-3.76459087668578E-16));
#580=DIRECTION('',(0.,-3.76459087668578E-16,-1.));
#581=DIRECTION('',(0.,1.,-3.76462099341279E-16));
#582=DIRECTION('',(1.,0.,0.));
#583=DIRECTION('',(0.,0.,1.));
#584=DIRECTION('',(0.,1.,0.));
#585=DIRECTION('',(0.,0.,1.));
#586=DIRECTION('',(0.,-1.,0.));
#587=DIRECTION('',(0.,0.,1.));
#588=DIRECTION('',(0.,-1.,0.));
#589=DIRECTION('',(1.,0.,0.));
#590=DIRECTION('',(0.,0.,1.));
#591=DIRECTION('',(0.,0.,1.));
#592=DIRECTION('',(0.,1.,3.76459087668578E-16));
#593=DIRECTION('',(0.,0.,-1.));
#594=DIRECTION('',(0.,-1.,0.));
#595=DIRECTION('',(1.,0.,0.));
#596=DIRECTION('',(0.,0.,1.));
#597=DIRECTION('',(1.,0.,0.));
#598=DIRECTION('',(1.,0.,0.));
#599=DIRECTION('',(0.,3.76459087668578E-16,-1.));
#600=DIRECTION('',(0.,1.,3.76462099341279E-16));
#601=DIRECTION('',(1.,0.,0.));
#602=DIRECTION('',(0.,-1.,0.));
#603=DIRECTION('',(0.,0.,-1.));
#604=DIRECTION('',(1.,0.,0.));
#605=DIRECTION('',(0.,0.,1.));
#606=DIRECTION('',(0.,-1.,0.));
#607=DIRECTION('',(0.,1.,0.));
#608=DIRECTION('',(0.,0.,1.));
#609=DIRECTION('',(1.,0.,0.));
#610=DIRECTION('',(0.,0.,1.));
#611=DIRECTION('',(1.,0.,0.));
#612=DIRECTION('',(0.,1.,0.));
#613=DIRECTION('',(0.,0.,1.));
#614=DIRECTION('',(1.,0.,0.));
#615=DIRECTION('',(0.,-1.,0.));
#616=DIRECTION('',(0.,0.,1.));
#617=DIRECTION('',(0.,-1.,0.));
#618=DIRECTION('',(1.,0.,0.));
#619=DIRECTION('',(0.,0.,-1.));
#620=DIRECTION('',(0.,-1.,0.));
#621=DIRECTION('',(0.,0.,-1.));
#622=DIRECTION('',(0.,1.,3.76459087668578E-16));
#623=DIRECTION('',(0.,3.76459087668578E-16,-1.));
#624=DIRECTION('',(0.,1.,3.76462099341279E-16));
#625=DIRECTION('',(1.,0.,0.));
#626=DIRECTION('',(0.,0.,1.));
#627=CARTESIAN_POINT('',(0.,0.,0.));
#628=CARTESIAN_POINT('',(3.5,-10.,0.7));
#629=CARTESIAN_POINT('',(3.5,-6.3,0.7));
#630=CARTESIAN_POINT('',(3.5,-4.5,0.7));
#631=CARTESIAN_POINT('',(3.5,-4.5,0.9));
#632=CARTESIAN_POINT('',(3.5,-4.5,0.2));
#633=CARTESIAN_POINT('',(3.5,-10.,0.199999999999998));
#634=CARTESIAN_POINT('',(3.5,-6.3,0.2));
#635=CARTESIAN_POINT('',(3.5,-6.3,0.9));
#636=CARTESIAN_POINT('',(3.5,-10.,0.200000000000006));
#637=CARTESIAN_POINT('',(3.5,6.3,0.2));
#638=CARTESIAN_POINT('',(3.5,4.5,0.2));
#639=CARTESIAN_POINT('',(3.5,4.5,0.9));
#640=CARTESIAN_POINT('',(3.5,4.5,0.7));
#641=CARTESIAN_POINT('',(3.5,-10.,0.7));
#642=CARTESIAN_POINT('',(3.5,6.3,0.7));
#643=CARTESIAN_POINT('',(3.5,6.3,0.9));
#644=CARTESIAN_POINT('',(3.5,-10.,0.));
#645=CARTESIAN_POINT('',(3.5,-10.,0.));
#646=CARTESIAN_POINT('',(3.5,10.,0.));
#647=CARTESIAN_POINT('',(3.5,10.,0.9));
#648=CARTESIAN_POINT('',(3.5,10.,0.9));
#649=CARTESIAN_POINT('',(3.5,-10.,0.9));
#650=CARTESIAN_POINT('',(3.5,-10.,0.9));
#651=CARTESIAN_POINT('',(3.5,-10.,0.9));
#652=CARTESIAN_POINT('',(3.5,-10.,0.9));
#653=CARTESIAN_POINT('',(3.5,10.,0.));
#654=CARTESIAN_POINT('',(-3.5,10.,0.));
#655=CARTESIAN_POINT('',(-3.5,10.,0.9));
#656=CARTESIAN_POINT('',(-3.5,10.,0.9));
#657=CARTESIAN_POINT('',(3.5,10.,0.9));
#658=CARTESIAN_POINT('',(3.5,10.,0.9));
#659=CARTESIAN_POINT('',(-3.5,10.,0.200000000000006));
#660=CARTESIAN_POINT('',(-3.5,-6.3,0.2));
#661=CARTESIAN_POINT('',(-3.5,-4.5,0.200000000000001));
#662=CARTESIAN_POINT('',(-3.5,-4.5,0.9));
#663=CARTESIAN_POINT('',(-3.5,-4.5,0.7));
#664=CARTESIAN_POINT('',(-3.5,10.,0.7));
#665=CARTESIAN_POINT('',(-3.5,-6.3,0.7));
#666=CARTESIAN_POINT('',(-3.5,-6.3,0.9));
#667=CARTESIAN_POINT('',(-3.5,10.,0.7));
#668=CARTESIAN_POINT('',(-3.5,6.3,0.7));
#669=CARTESIAN_POINT('',(-3.5,4.5,0.7));
#670=CARTESIAN_POINT('',(-3.5,4.5,0.9));
#671=CARTESIAN_POINT('',(-3.5,4.5,0.2));
#672=CARTESIAN_POINT('',(-3.5,10.,0.199999999999998));
#673=CARTESIAN_POINT('',(-3.5,6.3,0.2));
#674=CARTESIAN_POINT('',(-3.5,6.3,0.9));
#675=CARTESIAN_POINT('',(-3.5,10.,0.));
#676=CARTESIAN_POINT('',(-3.49999999999999,-10.,0.));
#677=CARTESIAN_POINT('',(-3.49999999999999,-10.,0.9));
#678=CARTESIAN_POINT('',(-3.49999999999999,-10.,0.9));
#679=CARTESIAN_POINT('',(-3.5,10.,0.9));
#680=CARTESIAN_POINT('',(-3.5,10.,0.9));
#681=CARTESIAN_POINT('',(-3.5,-10.,0.));
#682=CARTESIAN_POINT('',(-3.5,-10.,0.9));
#683=CARTESIAN_POINT('',(-3.5,-10.,0.9));
#684=CARTESIAN_POINT('',(3.5,10.,0.9));
#685=CARTESIAN_POINT('',(3.5,10.,0.));
#686=CARTESIAN_POINT('',(-3.6,4.5,0.7));
#687=CARTESIAN_POINT('',(-3.6,4.5,0.7));
#688=CARTESIAN_POINT('',(-3.6,4.5,0.2));
#689=CARTESIAN_POINT('',(-3.6,6.3,0.7));
#690=CARTESIAN_POINT('',(-3.6,6.3,0.7));
#691=CARTESIAN_POINT('',(-3.6,6.3,0.2));
#692=CARTESIAN_POINT('',(-3.6,6.3,0.2));
#693=CARTESIAN_POINT('',(-3.6,4.5,0.2));
#694=CARTESIAN_POINT('',(-3.6,4.5,0.2));
#695=CARTESIAN_POINT('',(-3.6,6.3,0.7));
#696=CARTESIAN_POINT('',(-3.6,4.5,0.7));
#697=CARTESIAN_POINT('',(-3.6,6.3,0.7));
#698=CARTESIAN_POINT('',(-3.6,6.3,0.2));
#699=CARTESIAN_POINT('',(-3.6,6.3,0.2));
#700=CARTESIAN_POINT('',(-3.6,4.5,0.2));
#701=CARTESIAN_POINT('',(-3.6,4.5,0.2));
#702=CARTESIAN_POINT('',(-3.6,4.5,0.7));
#703=CARTESIAN_POINT('',(-3.6,4.5,0.2));
#704=CARTESIAN_POINT('',(3.6,4.5,0.2));
#705=CARTESIAN_POINT('',(3.6,4.5,0.7));
#706=CARTESIAN_POINT('',(3.6,4.5,0.7));
#707=CARTESIAN_POINT('',(-3.6,4.5,0.7));
#708=CARTESIAN_POINT('',(-3.6,4.5,0.7));
#709=CARTESIAN_POINT('',(-3.6,6.3,0.2));
#710=CARTESIAN_POINT('',(3.6,6.3,0.2));
#711=CARTESIAN_POINT('',(3.6,4.5,0.2));
#712=CARTESIAN_POINT('',(-3.6,4.5,0.2));
#713=CARTESIAN_POINT('',(-3.6,6.3,0.7));
#714=CARTESIAN_POINT('',(3.6,6.3,0.7));
#715=CARTESIAN_POINT('',(3.6,6.3,0.2));
#716=CARTESIAN_POINT('',(-3.6,6.3,0.2));
#717=CARTESIAN_POINT('',(3.6,6.3,0.7));
#718=CARTESIAN_POINT('',(-3.6,6.3,0.7));
#719=CARTESIAN_POINT('',(3.6,4.5,0.2));
#720=CARTESIAN_POINT('',(-3.6,-4.5,0.2));
#721=CARTESIAN_POINT('',(-3.6,-4.5,0.2));
#722=CARTESIAN_POINT('',(-3.6,-4.5,0.7));
#723=CARTESIAN_POINT('',(-3.6,-6.3,0.2));
#724=CARTESIAN_POINT('',(-3.6,-6.3,0.2));
#725=CARTESIAN_POINT('',(-3.6,-6.3,0.7));
#726=CARTESIAN_POINT('',(-3.6,-6.3,0.7));
#727=CARTESIAN_POINT('',(-3.6,-4.5,0.7));
#728=CARTESIAN_POINT('',(-3.6,-4.5,0.7));
#729=CARTESIAN_POINT('',(-3.6,-6.3,0.2));
#730=CARTESIAN_POINT('',(-3.6,-4.5,0.2));
#731=CARTESIAN_POINT('',(-3.6,-6.3,0.2));
#732=CARTESIAN_POINT('',(-3.6,-6.3,0.7));
#733=CARTESIAN_POINT('',(-3.6,-6.3,0.7));
#734=CARTESIAN_POINT('',(-3.6,-4.5,0.7));
#735=CARTESIAN_POINT('',(-3.6,-4.5,0.7));
#736=CARTESIAN_POINT('',(-3.6,-4.5,0.2));
#737=CARTESIAN_POINT('',(-3.6,-4.5,0.7));
#738=CARTESIAN_POINT('',(3.6,-4.5,0.7));
#739=CARTESIAN_POINT('',(3.6,-4.5,0.2));
#740=CARTESIAN_POINT('',(3.6,-4.5,0.2));
#741=CARTESIAN_POINT('',(-3.6,-4.5,0.2));
#742=CARTESIAN_POINT('',(-3.6,-4.5,0.2));
#743=CARTESIAN_POINT('',(-3.6,-6.3,0.7));
#744=CARTESIAN_POINT('',(3.6,-6.3,0.7));
#745=CARTESIAN_POINT('',(3.6,-4.5,0.7));
#746=CARTESIAN_POINT('',(-3.6,-4.5,0.7));
#747=CARTESIAN_POINT('',(-3.6,-6.3,0.2));
#748=CARTESIAN_POINT('',(3.6,-6.3,0.2));
#749=CARTESIAN_POINT('',(3.6,-6.3,0.7));
#750=CARTESIAN_POINT('',(-3.6,-6.3,0.7));
#751=CARTESIAN_POINT('',(3.6,-6.3,0.2));
#752=CARTESIAN_POINT('',(-3.6,-6.3,0.2));
#753=CARTESIAN_POINT('',(3.6,-4.5,0.7));
#754=MECHANICAL_DESIGN_GEOMETRIC_PRESENTATION_REPRESENTATION('',(#24),#755);
#755=(
GEOMETRIC_REPRESENTATION_CONTEXT(3)
GLOBAL_UNCERTAINTY_ASSIGNED_CONTEXT((#756))
GLOBAL_UNIT_ASSIGNED_CONTEXT((#762,#758,#757))
REPRESENTATION_CONTEXT('Bezeichnungsschild_Ventil_A',
'TOP_LEVEL_ASSEMBLY_PART')
);
#756=UNCERTAINTY_MEASURE_WITH_UNIT(LENGTH_MEASURE(2.E-5),#762,
'DISTANCE_ACCURACY_VALUE','Maximum Tolerance applied to model');
#757=(
NAMED_UNIT(*)
SI_UNIT($,.STERADIAN.)
SOLID_ANGLE_UNIT()
);
#758=(
CONVERSION_BASED_UNIT('DEGREE',#760)
NAMED_UNIT(#759)
PLANE_ANGLE_UNIT()
);
#759=DIMENSIONAL_EXPONENTS(0.,0.,0.,0.,0.,0.,0.);
#760=PLANE_ANGLE_MEASURE_WITH_UNIT(PLANE_ANGLE_MEASURE(0.0174532925),#761);
#761=(
NAMED_UNIT(*)
PLANE_ANGLE_UNIT()
SI_UNIT($,.RADIAN.)
);
#762=(
LENGTH_UNIT()
NAMED_UNIT(*)
SI_UNIT(.MILLI.,.METRE.)
);
ENDSEC;
END-ISO-10303-21;
